  0
SECTION
  2
HEADER
  9
$ACADVER
  1
AC1018
  9
$ACADMAINTVER
 70
     0
  9
$DWGCODEPAGE
  3
ANSI_1252
  9
$INSBASE
 10
0.0
 20
0.0
 30
0.0
  9
$EXTMIN
 10
1.000000000000000E+20
 20
1.000000000000000E+20
 30
1.000000000000000E+20
  9
$EXTMAX
 10
-1.000000000000000E+20
 20
-1.000000000000000E+20
 30
-1.000000000000000E+20
  9
$LIMMIN
 10
0.0
 20
0.0
  9
$LIMMAX
 10
12.0
 20
9.0
  9
$ORTHOMODE
 70
     0
  9
$REGENMODE
 70
     1
  9
$FILLMODE
 70
     1
  9
$QTEXTMODE
 70
     0
  9
$MIRRTEXT
 70
     1
  9
$LTSCALE
 40
1.0
  9
$ATTMODE
 70
     1
  9
$TEXTSIZE
 40
0.2
  9
$TRACEWID
 40
0.05
  9
$TEXTSTYLE
  7
Standard
  9
$CLAYER
  8
0
  9
$CELTYPE
  6
ByLayer
  9
$CECOLOR
 62
   256
  9
$CELTSCALE
 40
1.0
  9
$DISPSILH
 70
     0
  9
$DIMSCALE
 40
1.0
  9
$DIMASZ
 40
0.18
  9
$DIMEXO
 40
0.0625
  9
$DIMDLI
 40
0.38
  9
$DIMRND
 40
0.0
  9
$DIMDLE
 40
0.0
  9
$DIMEXE
 40
0.18
  9
$DIMTP
 40
0.0
  9
$DIMTM
 40
0.0
  9
$DIMTXT
 40
0.18
  9
$DIMCEN
 40
0.09
  9
$DIMTSZ
 40
0.0
  9
$DIMTOL
 70
     0
  9
$DIMLIM
 70
     0
  9
$DIMTIH
 70
     1
  9
$DIMTOH
 70
     1
  9
$DIMSE1
 70
     0
  9
$DIMSE2
 70
     0
  9
$DIMTAD
 70
     0
  9
$DIMZIN
 70
     0
  9
$DIMBLK
  1

  9
$DIMASO
 70
     1
  9
$DIMSHO
 70
     1
  9
$DIMPOST
  1

  9
$DIMAPOST
  1

  9
$DIMALT
 70
     0
  9
$DIMALTD
 70
     2
  9
$DIMALTF
 40
25.4
  9
$DIMLFAC
 40
1.0
  9
$DIMTOFL
 70
     0
  9
$DIMTVP
 40
0.0
  9
$DIMTIX
 70
     0
  9
$DIMSOXD
 70
     0
  9
$DIMSAH
 70
     0
  9
$DIMBLK1
  1

  9
$DIMBLK2
  1

  9
$DIMSTYLE
  2
Standard
  9
$DIMCLRD
 70
     0
  9
$DIMCLRE
 70
     0
  9
$DIMCLRT
 70
     0
  9
$DIMTFAC
 40
1.0
  9
$DIMGAP
 40
0.09
  9
$DIMJUST
 70
     0
  9
$DIMSD1
 70
     0
  9
$DIMSD2
 70
     0
  9
$DIMTOLJ
 70
     1
  9
$DIMTZIN
 70
     0
  9
$DIMALTZ
 70
     0
  9
$DIMALTTZ
 70
     0
  9
$DIMUPT
 70
     0
  9
$DIMDEC
 70
     4
  9
$DIMTDEC
 70
     4
  9
$DIMALTU
 70
     2
  9
$DIMALTTD
 70
     2
  9
$DIMTXSTY
  7
Standard
  9
$DIMAUNIT
 70
     0
  9
$DIMADEC
 70
     0
  9
$DIMALTRND
 40
0.0
  9
$DIMAZIN
 70
     0
  9
$DIMDSEP
 70
    46
  9
$DIMATFIT
 70
     3
  9
$DIMFRAC
 70
     0
  9
$DIMLDRBLK
  1

  9
$DIMLUNIT
 70
     2
  9
$DIMLWD
 70
    -2
  9
$DIMLWE
 70
    -2
  9
$DIMTMOVE
 70
     0
  9
$LUNITS
 70
     2
  9
$LUPREC
 70
     4
  9
$SKETCHINC
 40
0.1
  9
$FILLETRAD
 40
0.5
  9
$AUNITS
 70
     0
  9
$AUPREC
 70
     0
  9
$MENU
  1
.
  9
$ELEVATION
 40
0.0
  9
$PELEVATION
 40
0.0
  9
$THICKNESS
 40
0.0
  9
$LIMCHECK
 70
     0
  9
$CHAMFERA
 40
0.5
  9
$CHAMFERB
 40
0.5
  9
$CHAMFERC
 40
1.0
  9
$CHAMFERD
 40
0.0
  9
$SKPOLY
 70
     0
  9
$TDCREATE
 40
2457529.67817853
  9
$TDUCREATE
 40
2457529.594845197
  9
$TDUPDATE
 40
2457529.678178542
  9
$TDUUPDATE
 40
2457529.594845208
  9
$TDINDWG
 40
0.0000000116
  9
$TDUSRTIMER
 40
0.0000000116
  9
$USRTIMER
 70
     1
  9
$ANGBASE
 50
0.0
  9
$ANGDIR
 70
     0
  9
$PDMODE
 70
     0
  9
$PDSIZE
 40
0.0
  9
$PLINEWID
 40
0.0
  9
$SPLFRAME
 70
     0
  9
$SPLINETYPE
 70
     6
  9
$SPLINESEGS
 70
     8
  9
$HANDSEED
  5
B4
  9
$SURFTAB1
 70
     6
  9
$SURFTAB2
 70
     6
  9
$SURFTYPE
 70
     6
  9
$SURFU
 70
     6
  9
$SURFV
 70
     6
  9
$UCSBASE
  2

  9
$UCSNAME
  2

  9
$UCSORG
 10
0.0
 20
0.0
 30
0.0
  9
$UCSXDIR
 10
1.0
 20
0.0
 30
0.0
  9
$UCSYDIR
 10
0.0
 20
1.0
 30
0.0
  9
$UCSORTHOREF
  2

  9
$UCSORTHOVIEW
 70
     0
  9
$UCSORGTOP
 10
0.0
 20
0.0
 30
0.0
  9
$UCSORGBOTTOM
 10
0.0
 20
0.0
 30
0.0
  9
$UCSORGLEFT
 10
0.0
 20
0.0
 30
0.0
  9
$UCSORGRIGHT
 10
0.0
 20
0.0
 30
0.0
  9
$UCSORGFRONT
 10
0.0
 20
0.0
 30
0.0
  9
$UCSORGBACK
 10
0.0
 20
0.0
 30
0.0
  9
$PUCSBASE
  2

  9
$PUCSNAME
  2

  9
$PUCSORG
 10
0.0
 20
0.0
 30
0.0
  9
$PUCSXDIR
 10
1.0
 20
0.0
 30
0.0
  9
$PUCSYDIR
 10
0.0
 20
1.0
 30
0.0
  9
$PUCSORTHOREF
  2

  9
$PUCSORTHOVIEW
 70
     0
  9
$PUCSORGTOP
 10
0.0
 20
0.0
 30
0.0
  9
$PUCSORGBOTTOM
 10
0.0
 20
0.0
 30
0.0
  9
$PUCSORGLEFT
 10
0.0
 20
0.0
 30
0.0
  9
$PUCSORGRIGHT
 10
0.0
 20
0.0
 30
0.0
  9
$PUCSORGFRONT
 10
0.0
 20
0.0
 30
0.0
  9
$PUCSORGBACK
 10
0.0
 20
0.0
 30
0.0
  9
$USERI1
 70
     0
  9
$USERI2
 70
     0
  9
$USERI3
 70
     0
  9
$USERI4
 70
     0
  9
$USERI5
 70
     0
  9
$USERR1
 40
0.0
  9
$USERR2
 40
0.0
  9
$USERR3
 40
0.0
  9
$USERR4
 40
0.0
  9
$USERR5
 40
0.0
  9
$WORLDVIEW
 70
     1
  9
$SHADEDGE
 70
     3
  9
$SHADEDIF
 70
    70
  9
$TILEMODE
 70
     1
  9
$MAXACTVP
 70
    64
  9
$PINSBASE
 10
0.0
 20
0.0
 30
0.0
  9
$PLIMCHECK
 70
     0
  9
$PEXTMIN
 10
1.000000000000000E+20
 20
1.000000000000000E+20
 30
1.000000000000000E+20
  9
$PEXTMAX
 10
-1.000000000000000E+20
 20
-1.000000000000000E+20
 30
-1.000000000000000E+20
  9
$PLIMMIN
 10
0.0
 20
0.0
  9
$PLIMMAX
 10
12.0
 20
9.0
  9
$UNITMODE
 70
     0
  9
$VISRETAIN
 70
     1
  9
$PLINEGEN
 70
     0
  9
$PSLTSCALE
 70
     1
  9
$TREEDEPTH
 70
  3020
  9
$CMLSTYLE
  2
Standard
  9
$CMLJUST
 70
     0
  9
$CMLSCALE
 40
1.0
  9
$PROXYGRAPHICS
 70
     1
  9
$MEASUREMENT
 70
     0
  9
$CELWEIGHT
370
    -1
  9
$ENDCAPS
280
     0
  9
$JOINSTYLE
280
     0
  9
$LWDISPLAY
290
     1
  9
$INSUNITS
 70
     1
  9
$HYPERLINKBASE
  1

  9
$STYLESHEET
  1

  9
$XEDIT
290
     1
  9
$CEPSNTYPE
380
     0
  9
$PSTYLEMODE
290
     1
  9
$FINGERPRINTGUID
  2
{ACD263B7-AA2E-4A26-9B29-A6D4CF84D363}
  9
$VERSIONGUID
  2
{FAEB1C32-E019-11D5-929B-00C0DF256EC4}
  9
$EXTNAMES
290
     1
  9
$PSVPSCALE
 40
0.0
  9
$OLESTARTUP
290
     0
  9
$SORTENTS
280
   127
  9
$INDEXCTL
280
     0
  9
$HIDETEXT
280
     1
  9
$XCLIPFRAME
290
     0
  9
$HALOGAP
280
     0
  9
$OBSCOLOR
 70
   257
  9
$OBSLTYPE
280
     0
  9
$INTERSECTIONDISPLAY
280
     0
  9
$INTERSECTIONCOLOR
 70
   257
  9
$DIMASSOC
280
     2
  9
$PROJECTNAME
  1

  0
ENDSEC
  0
SECTION
  2
CLASSES
  0
CLASS
  1
ACDBDICTIONARYWDFLT
  2
AcDbDictionaryWithDefault
  3
ObjectDBX Classes
 90
        0
 91
        3
280
     0
281
     0
  0
CLASS
  1
VISUALSTYLE
  2
AcDbVisualStyle
  3
ObjectDBX Classes
 90
     4095
 91
        3
280
     0
281
     0
  0
ENDSEC
  0
SECTION
  2
TABLES
  0
TABLE
  2
VPORT
  5
8
330
0
100
AcDbSymbolTable
 70
     1
  0
VPORT
  5
29
330
8
100
AcDbSymbolTableRecord
100
AcDbViewportTableRecord
  2
*Active
 70
     0
 10
0.0
 20
0.0
 11
1.0
 21
1.0
 12
0.0
 22
0.0
 13
0.0
 23
0.0
 14
0.5
 24
0.5
 15
0.5
 25
0.5
 16
0.0
 26
0.0
 36
1.0
 17
281.4232183812501
 27
-281.1920352487124
 37
0.0
 40
8.452403969241118
 41
1.045458250796822
 42
50.0
 43
0.0
 44
0.0
 50
0.0
 51
0.0
 71
     0
 72
   100
 73
     1
 74
     3
 75
     0
 76
     0
 77
     0
 78
     0
281
     0
 65
     1
110
0.0
120
0.0
130
0.0
111
1.0
121
0.0
131
0.0
112
0.0
122
1.0
132
0.0
 79
     0
146
0.0
  0
ENDTAB
  0
TABLE
  2
LTYPE
  5
5
330
0
100
AcDbSymbolTable
 70
     1
  0
LTYPE
  5
14
330
5
100
AcDbSymbolTableRecord
100
AcDbLinetypeTableRecord
  2
ByBlock
 70
     0
  3

 72
    65
 73
     0
 40
0.0
  0
LTYPE
  5
15
330
5
100
AcDbSymbolTableRecord
100
AcDbLinetypeTableRecord
  2
ByLayer
 70
     0
  3

 72
    65
 73
     0
 40
0.0
  0
LTYPE
  5
16
330
5
100
AcDbSymbolTableRecord
100
AcDbLinetypeTableRecord
  2
Continuous
 70
     0
  3
Solid line
 72
    65
 73
     0
 40
0.0
  0
ENDTAB
  0
TABLE
  2
LAYER
  5
2
330
0
100
AcDbSymbolTable
 70
     2
  0
LAYER
  5
10
330
2
100
AcDbSymbolTableRecord
100
AcDbLayerTableRecord
  2
0
 70
     0
 62
     7
  6
Continuous
370
    -3
390
F
  0
LAYER
  5
3B
330
2
100
AcDbSymbolTableRecord
100
AcDbLayerTableRecord
  2
Layer 1
 70
     0
 62
     7
  6
Continuous
370
    -3
390
F
  0
ENDTAB
  0
TABLE
  2
STYLE
  5
3
330
0
100
AcDbSymbolTable
 70
     1
  0
STYLE
  5
11
330
3
100
AcDbSymbolTableRecord
100
AcDbTextStyleTableRecord
  2
Standard
 70
     0
 40
0.0
 41
1.0
 50
0.0
 71
     0
 42
0.2
  3
txt
  4

  0
ENDTAB
  0
TABLE
  2
VIEW
  5
6
330
0
100
AcDbSymbolTable
 70
     0
  0
ENDTAB
  0
TABLE
  2
UCS
  5
7
330
0
100
AcDbSymbolTable
 70
     0
  0
ENDTAB
  0
TABLE
  2
APPID
  5
9
330
0
100
AcDbSymbolTable
 70
     1
  0
APPID
  5
12
330
9
100
AcDbSymbolTableRecord
100
AcDbRegAppTableRecord
  2
ACAD
 70
     0
  0
ENDTAB
  0
TABLE
  2
DIMSTYLE
  5
A
330
0
100
AcDbSymbolTable
 70
     1
100
AcDbDimStyleTable
  0
DIMSTYLE
105
27
330
A
100
AcDbSymbolTableRecord
100
AcDbDimStyleTableRecord
  2
Standard
 70
     0
340
11
  0
ENDTAB
  0
TABLE
  2
BLOCK_RECORD
  5
1
330
0
100
AcDbSymbolTable
 70
     3
  0
BLOCK_RECORD
  5
1F
330
1
100
AcDbSymbolTableRecord
100
AcDbBlockTableRecord
  2
*Model_Space
340
22
  0
BLOCK_RECORD
  5
1B
330
1
100
AcDbSymbolTableRecord
100
AcDbBlockTableRecord
  2
*Paper_Space
340
1E
  0
BLOCK_RECORD
  5
23
330
1
100
AcDbSymbolTableRecord
100
AcDbBlockTableRecord
  2
*Paper_Space0
340
26
  0
BLOCK_RECORD
  5
3F
330
1
100
AcDbSymbolTableRecord
100
AcDbBlockTableRecord
  2
block 2
340
0
102
{BLKREFS
331
40
102
}
  0
BLOCK_RECORD
  5
5A
330
1
100
AcDbSymbolTableRecord
100
AcDbBlockTableRecord
  2
block 3
340
0
102
{BLKREFS
331
5B
102
}
  0
ENDTAB
  0
ENDSEC
  0
SECTION
  2
BLOCKS
  0
BLOCK
  5
20
330
1F
100
AcDbEntity
  8
0
100
AcDbBlockBegin
  2
*Model_Space
 70
     0
 71
     0
 10
0.0
 20
0.0
 30
0.0
  3
*Model_Space
  1

  0
ENDBLK
  5
21
330
1F
100
AcDbEntity
  8
0
100
AcDbBlockEnd
  0
BLOCK
  5
1C
330
1B
100
AcDbEntity
 67
     1
  8
0
100
AcDbBlockBegin
  2
*Paper_Space
 70
     0
 71
     0
 10
0.0
 20
0.0
 30
0.0
  3
*Paper_Space
  1

  0
ENDBLK
  5
1D
330
1B
100
AcDbEntity
 67
     1
  8
0
100
AcDbBlockEnd
  0
BLOCK
  5
24
330
23
100
AcDbEntity
  8
0
100
AcDbBlockBegin
  2
*Paper_Space0
 70
     0
 71
     0
 10
0.0
 20
0.0
 30
0.0
  3
*Paper_Space0
  1

  0
ENDBLK
  5
25
330
23
100
AcDbEntity
  8
0
100
AcDbBlockEnd
  0
BLOCK
  5
41
330
3F
100
AcDbEntity
  8
0
100
AcDbBlockBegin
  2
block 2
 70
     0
 71
     0
 10
0.0
 20
0.0
 30
0.0
  3
block 2
  1

  0
POLYLINE
  5
43
330
3F
100
AcDbEntity
  8
Layer 1
370
     0
100
AcDb2dPolyline
 66
     1
 10
0.0
 20
0.0
 30
0.0
  0
VERTEX
  5
44
330
43
100
AcDbEntity
  8
Layer 1
370
     0
100
AcDbVertex
100
AcDb2dVertex
 10
282.5977892359912
 20
-279.2412154792348
 30
0.0
  0
VERTEX
  5
45
330
43
100
AcDbEntity
  8
Layer 1
370
     0
100
AcDbVertex
100
AcDb2dVertex
 10
282.9291385197625
 20
-278.7021958396126
 30
0.0
  0
VERTEX
  5
46
330
43
100
AcDbEntity
  8
Layer 1
370
     0
100
AcDbVertex
100
AcDb2dVertex
 10
283.0500613712948
 20
-278.7764720982746
 30
0.0
  0
VERTEX
  5
47
330
43
100
AcDbEntity
  8
Layer 1
370
     0
100
AcDbVertex
100
AcDb2dVertex
 10
282.7187120875234
 20
-279.3155434143291
 30
0.0
  0
VERTEX
  5
48
330
43
100
AcDbEntity
  8
Layer 1
370
     0
100
AcDbVertex
100
AcDb2dVertex
 10
282.5977892359912
 20
-279.2412154792348
 30
0.0
  0
SEQEND
  5
49
330
43
100
AcDbEntity
  8
Layer 1
370
     0
  0
HATCH
  5
4A
330
3F
100
AcDbEntity
  8
Layer 1
 62
     7
420
 15724268
100
AcDbHatch
 10
0.0
 20
0.0
 30
0.0
210
0.0
220
0.0
230
1.0
  2
SOLID
 70
     1
 71
     0
 91
        1
 92
        1
 93
        4
 72
     1
 10
282.5977892359912
 20
-279.2412154792348
 11
282.9291385197625
 21
-278.7021958396126
 72
     1
 10
282.9291385197625
 20
-278.7021958396126
 11
283.0500613712948
 21
-278.7764720982746
 72
     1
 10
283.0500613712948
 20
-278.7764720982746
 11
282.7187120875234
 21
-279.3155434143291
 72
     1
 10
282.7187120875234
 20
-279.3155434143291
 11
282.5977892359912
 21
-279.2412154792348
 97
        0
 75
     2
 76
     1
 98
        0
  0
SPLINE
  5
4B
330
3F
100
AcDbEntity
  8
Layer 1
370
     0
100
AcDbSpline
210
0.0
220
0.0
230
1.0
 70
    11
 71
     3
 72
    74
 73
    70
 74
     0
 42
0.0000000001
 43
0.0000000001
 40
0.0
 40
0.0
 40
0.0
 40
0.0
 40
1.0
 40
1.0
 40
1.0
 40
2.0
 40
2.0
 40
2.0
 40
3.0
 40
3.0
 40
3.0
 40
4.0
 40
4.0
 40
4.0
 40
5.0
 40
5.0
 40
5.0
 40
6.0
 40
6.0
 40
6.0
 40
7.0
 40
7.0
 40
7.0
 40
8.0
 40
8.0
 40
8.0
 40
9.0
 40
9.0
 40
9.0
 40
10.0
 40
10.0
 40
10.0
 40
11.0
 40
11.0
 40
11.0
 40
12.0
 40
12.0
 40
12.0
 40
13.0
 40
13.0
 40
13.0
 40
14.0
 40
14.0
 40
14.0
 40
15.0
 40
15.0
 40
15.0
 40
16.0
 40
16.0
 40
16.0
 40
17.0
 40
17.0
 40
17.0
 40
18.0
 40
18.0
 40
18.0
 40
19.0
 40
19.0
 40
19.0
 40
20.0
 40
20.0
 40
20.0
 40
21.0
 40
21.0
 40
21.0
 40
22.0
 40
22.0
 40
22.0
 40
23.0
 40
23.0
 40
23.0
 40
23.0
 10
281.8758350261022
 20
-278.9656767423245
 30
0.0
 10
281.8890641927655
 20
-278.9456435120778
 30
0.0
 10
281.8999162435441
 20
-278.9246112041404
 30
0.0
 10
281.908356727483
 20
-278.9025625930348
 30
0.0
 10
281.9168316623767
 20
-278.8805312074066
 30
0.0
 10
281.9243075195797
 20
-278.8582242141396
 30
0.0
 10
281.9307498481371
 20
-278.8356416132338
 30
0.0
 10
281.9368821181008
 20
-278.8142131193155
 30
0.0
 10
281.9424631727869
 20
-278.7929052037393
 30
0.0
 10
281.9475274631503
 20
-278.7718212193695
 30
0.0
 10
281.9526262044684
 20
-278.7506855585675
 30
0.0
 10
281.9581383572448
 20
-278.7297221525398
 30
0.0
 10
281.9640983724343
 20
-278.7088448738992
 30
0.0
 10
281.9748470703483
 20
-278.6712072057228
 30
0.0
 10
281.9873872179146
 20
-278.6397190329876
 30
0.0
 10
282.0018566189526
 20
-278.6143631302162
 30
0.0
 10
282.016257118081
 20
-278.5890244529222
 30
0.0
 10
282.0338960069654
 20
-278.5699213984565
 30
0.0
 10
282.0548077365609
 20
-278.5570884177739
 30
0.0
 10
282.0757194661564
 20
-278.5442209861365
 30
0.0
 10
282.1005586046051
 20
-278.5373824715983
 30
0.0
 10
282.1293251519069
 20
-278.5364867467721
 30
0.0
 10
282.1580572482538
 20
-278.5356426983782
 30
0.0
 10
282.191888085919
 20
-278.5406897632641
 30
0.0
 10
282.2306798610829
 20
-278.5517312942943
 30
0.0
 10
282.2306798610829
 20
-278.5517312942943
 30
0.0
 10
282.2309554687217
 20
-278.5508872459005
 30
0.0
 10
282.2309554687217
 20
-278.5508872459005
 30
0.0
 10
282.251212630175
 20
-278.5566577808382
 30
0.0
 10
282.2713319878089
 20
-278.5647365297511
 30
0.0
 10
282.2912446397136
 20
-278.5751234926392
 30
0.0
 10
282.3111572916184
 20
-278.5854932300498
 30
0.0
 10
282.3287961805029
 20
-278.5982228578678
 30
0.0
 10
282.3442991101865
 20
-278.6132951506157
 30
0.0
 10
282.3596986870056
 20
-278.6283502178863
 30
0.0
 10
282.3717220702491
 20
-278.6455412443577
 30
0.0
 10
282.3803003580073
 20
-278.6649199064622
 30
0.0
 10
282.3888786457656
 20
-278.6842641176119
 30
0.0
 10
282.3922548393411
 20
-278.7059337682141
 30
0.0
 10
282.3904633896888
 20
-278.7298255054043
 30
0.0
 10
282.3897743705918
 20
-278.7365434416006
 30
0.0
 10
282.3888786457656
 20
-278.7431752504096
 30
0.0
 10
282.3876384113909
 20
-278.7497037063542
 30
0.0
 10
282.3863981770162
 20
-278.7562493877762
 30
0.0
 10
282.3854335502804
 20
-278.7628811965853
 30
0.0
 10
282.3847445311833
 20
-278.7695646818267
 30
0.0
 10
282.3847445311833
 20
-278.7695646818267
 30
0.0
 10
282.2613412109017
 20
-278.7343730314449
 30
0.0
 10
282.2613412109017
 20
-278.7343730314449
 30
0.0
 10
282.2665777560392
 20
-278.7139263897399
 30
0.0
 10
282.2629948567346
 20
-278.6967870397008
 30
0.0
 10
282.2506614148974
 20
-278.6829033048952
 30
0.0
 10
282.2382935221053
 20
-278.6690540210445
 30
0.0
 10
282.2228594943314
 20
-278.6595111065504
 30
0.0
 10
282.2042904296659
 20
-278.6541884340257
 30
0.0
 10
282.1822762695152
 20
-278.6479355857199
 30
0.0
 10
282.1632248914817
 20
-278.647212115668
 30
0.0
 10
282.1471018446108
 20
-278.65201802387
 30
0.0
 10
282.1310132486947
 20
-278.6568411575493
 30
0.0
 10
282.1195410807288
 20
-278.6713966859745
 30
0.0
 10
282.1125819878486
 20
-278.6957190601004
 30
0.0
 10
282.1125819878486
 20
-278.6957190601004
 30
0.0
 10
282.0434044705048
 20
-278.9382193313071
 30
0.0
 10
282.0434044705048
 20
-278.9382193313071
 30
0.0
 10
282.0363075738051
 20
-278.9631790480977
 30
0.0
 10
282.0267991102659
 20
-278.985537717797
 30
0.0
 10
282.0148790798869
 20
-279.0053470168372
 30
0.0
 10
282.0148790798869
 20
-279.0053470168372
 30
0.0
 10
281.8758350261022
 20
-278.9656767423245
 30
0.0
 10
281.8758350261022
 20
-278.9656767423245
 30
0.0
  0
SPLINE
  5
4C
330
3F
100
AcDbEntity
  8
Layer 1
370
     0
100
AcDbSpline
210
0.0
220
0.0
230
1.0
 70
    11
 71
     3
 72
    89
 73
    85
 74
     0
 42
0.0000000001
 43
0.0000000001
 40
0.0
 40
0.0
 40
0.0
 40
0.0
 40
1.0
 40
1.0
 40
1.0
 40
2.0
 40
2.0
 40
2.0
 40
3.0
 40
3.0
 40
3.0
 40
4.0
 40
4.0
 40
4.0
 40
5.0
 40
5.0
 40
5.0
 40
6.0
 40
6.0
 40
6.0
 40
7.0
 40
7.0
 40
7.0
 40
8.0
 40
8.0
 40
8.0
 40
9.0
 40
9.0
 40
9.0
 40
10.0
 40
10.0
 40
10.0
 40
11.0
 40
11.0
 40
11.0
 40
12.0
 40
12.0
 40
12.0
 40
13.0
 40
13.0
 40
13.0
 40
14.0
 40
14.0
 40
14.0
 40
15.0
 40
15.0
 40
15.0
 40
16.0
 40
16.0
 40
16.0
 40
17.0
 40
17.0
 40
17.0
 40
18.0
 40
18.0
 40
18.0
 40
19.0
 40
19.0
 40
19.0
 40
20.0
 40
20.0
 40
20.0
 40
21.0
 40
21.0
 40
21.0
 40
22.0
 40
22.0
 40
22.0
 40
23.0
 40
23.0
 40
23.0
 40
24.0
 40
24.0
 40
24.0
 40
25.0
 40
25.0
 40
25.0
 40
26.0
 40
26.0
 40
26.0
 40
27.0
 40
27.0
 40
27.0
 40
28.0
 40
28.0
 40
28.0
 40
28.0
 10
282.0806115017455
 20
-279.0221590828052
 30
0.0
 10
282.0881218099033
 20
-279.0067595059861
 30
0.0
 10
282.0937717664991
 20
-278.9923934578126
 30
0.0
 10
282.0975613715329
 20
-278.9790781637622
 30
0.0
 10
282.0992150173658
 20
-278.9732904033469
 30
0.0
 10
282.1011787217924
 20
-278.9659868009182
 30
0.0
 10
282.1033491319481
 20
-278.9572190329083
 30
0.0
 10
282.1055539930587
 20
-278.9484684903757
 30
0.0
 10
282.1074487955755
 20
-278.9411476624696
 30
0.0
 10
282.1091368923633
 20
-278.9353599020544
 30
0.0
 10
282.1107216362865
 20
-278.9295549161617
 30
0.0
 10
282.1116862630224
 20
-278.9263682028378
 30
0.0
 10
282.1118240668418
 20
-278.9257825366054
 30
0.0
 10
282.1218148437491
 20
-278.9349120396412
 30
0.0
 10
282.1350440104124
 20
-278.9421295146828
 30
0.0
 10
282.1516493706513
 20
-278.9475038636398
 30
0.0
 10
282.1656020073665
 20
-278.9514657234479
 30
0.0
 10
282.1802436631789
 20
-278.9512590177188
 30
0.0
 10
282.1956087890431
 20
-278.946866520975
 30
0.0
 10
282.2109050129976
 20
-278.9424740242314
 30
0.0
 10
282.2208268879951
 20
-278.9324143454144
 30
0.0
 10
282.2253055121259
 20
-278.9167908373888
 30
0.0
 10
282.2294396267083
 20
-278.9023042108734
 30
0.0
 10
282.2294396267083
 20
-278.8902291511976
 30
0.0
 10
282.2252366102163
 20
-278.8806001093163
 30
0.0
 10
282.2211369465888
 20
-278.8709538419576
 30
0.0
 10
282.2149013237605
 20
-278.8627372892253
 30
0.0
 10
282.2064608398216
 20
-278.8559676765968
 30
0.0
 10
282.1980548068376
 20
-278.8491808384908
 30
0.0
 10
282.1884429904338
 20
-278.8434447545079
 30
0.0
 10
282.1775564887004
 20
-278.8387766501253
 30
0.0
 10
282.166669986967
 20
-278.8341257712203
 30
0.0
 10
282.1561968966918
 20
-278.8294404413603
 30
0.0
 10
282.1462750216943
 20
-278.8247206605456
 30
0.0
 10
282.1462750216943
 20
-278.8247206605456
 30
0.0
 10
282.1723199435628
 20
-278.7334600811413
 30
0.0
 10
282.1723199435628
 20
-278.7334600811413
 30
0.0
 10
282.1777631944295
 20
-278.7362506084843
 30
0.0
 10
282.1813460937341
 20
-278.7378698033624
 30
0.0
 10
282.1831375433865
 20
-278.7383865676852
 30
0.0
 10
282.1842744248966
 20
-278.7386966262789
 30
0.0
 10
282.1851356987679
 20
-278.7389722339177
 30
0.0
 10
282.1857213650004
 20
-278.7391272632145
 30
0.0
 10
282.1863070312329
 20
-278.7393167434662
 30
0.0
 10
282.1872716579688
 20
-278.739712929447
 30
0.0
 10
282.1886496961629
 20
-278.7404363994989
 30
0.0
 10
282.190027734357
 20
-278.7411598695508
 30
0.0
 10
282.1934039279325
 20
-278.7429340937257
 30
0.0
 10
282.1988816297541
 20
-278.7457073955914
 30
0.0
 10
282.2218948675956
 20
-278.7573001418992
 30
0.0
 10
282.2448736544821
 20
-278.769013466549
 30
0.0
 10
282.2678179904139
 20
-278.7808645950183
 30
0.0
 10
282.2907623263457
 20
-278.7927673999199
 30
0.0
 10
282.3102960177471
 20
-278.8065994582931
 30
0.0
 10
282.3264190646181
 20
-278.8224813484801
 30
0.0
 10
282.3425765624439
 20
-278.838397689622
 30
0.0
 10
282.3541520832743
 20
-278.8571734600166
 30
0.0
 10
282.3611111761545
 20
-278.8788947870511
 30
0.0
 10
282.3680702690347
 20
-278.9006505650405
 30
0.0
 10
282.3671056422988
 20
-278.9271261238446
 30
0.0
 10
282.358182844992
 20
-278.9584248163281
 30
0.0
 10
282.3515682616604
 20
-278.9816103089438
 30
0.0
 10
282.3414741318886
 20
-279.0011440003452
 30
0.0
 10
282.3278660047218
 20
-279.0170086650547
 30
0.0
 10
282.3142578775551
 20
-279.0328388788095
 30
0.0
 10
282.2983415364133
 20
-279.0452412225564
 30
0.0
 10
282.2801514322511
 20
-279.0541640198632
 30
0.0
 10
282.2619268771342
 20
-279.0630695916926
 30
0.0
 10
282.2419797742746
 20
-279.0681683330107
 30
0.0
 10
282.2203101236723
 20
-279.06951192025
 30
0.0
 10
282.1986404730701
 20
-279.0708210565344
 30
0.0
 10
282.1767641167388
 20
-279.0683922642173
 30
0.0
 10
282.154749956588
 20
-279.0621049649567
 30
0.0
 10
282.1437601019901
 20
-279.0589699280651
 30
0.0
 10
282.1352507161415
 20
-279.0566961650449
 30
0.0
 10
282.1293940538166
 20
-279.0553525778056
 30
0.0
 10
282.1235373914917
 20
-279.0539917650889
 30
0.0
 10
282.1182663953992
 20
-279.0521830899592
 30
0.0
 10
282.1135810655393
 20
-279.0499093269389
 30
0.0
 10
282.1088957356794
 20
-279.0476355639186
 30
0.0
 10
282.104313758684
 20
-279.0444143996399
 30
0.0
 10
282.0998351345531
 20
-279.0403491869673
 30
0.0
 10
282.0953565104223
 20
-279.0362322978625
 30
0.0
 10
282.0889486328198
 20
-279.0302206062407
 30
0.0
 10
282.0806115017455
 20
-279.0221590828052
 30
0.0
  0
HATCH
  5
4D
330
3F
100
AcDbEntity
  8
Layer 1
 62
     7
420
 15724268
100
AcDbHatch
 10
0.0
 20
0.0
 30
0.0
210
0.0
220
0.0
230
1.0
  2
SOLID
 70
     1
 71
     0
 91
        2
 92
        1
 93
        1
 72
     4
 94
        3
 73
     0
 74
     1
 95
       74
 96
       70
 40
0.0
 40
0.0
 40
0.0
 40
0.0
 40
1.0
 40
1.0
 40
1.0
 40
2.0
 40
2.0
 40
2.0
 40
3.0
 40
3.0
 40
3.0
 40
4.0
 40
4.0
 40
4.0
 40
5.0
 40
5.0
 40
5.0
 40
6.0
 40
6.0
 40
6.0
 40
7.0
 40
7.0
 40
7.0
 40
8.0
 40
8.0
 40
8.0
 40
9.0
 40
9.0
 40
9.0
 40
10.0
 40
10.0
 40
10.0
 40
11.0
 40
11.0
 40
11.0
 40
12.0
 40
12.0
 40
12.0
 40
13.0
 40
13.0
 40
13.0
 40
14.0
 40
14.0
 40
14.0
 40
15.0
 40
15.0
 40
15.0
 40
16.0
 40
16.0
 40
16.0
 40
17.0
 40
17.0
 40
17.0
 40
18.0
 40
18.0
 40
18.0
 40
19.0
 40
19.0
 40
19.0
 40
20.0
 40
20.0
 40
20.0
 40
21.0
 40
21.0
 40
21.0
 40
22.0
 40
22.0
 40
22.0
 40
23.0
 40
23.0
 40
23.0
 40
23.0
 10
281.8758350261022
 20
-278.9656767423245
 10
281.8890641927655
 20
-278.9456435120778
 10
281.8999162435441
 20
-278.9246112041404
 10
281.908356727483
 20
-278.9025625930348
 10
281.9168316623767
 20
-278.8805312074066
 10
281.9243075195797
 20
-278.8582242141396
 10
281.9307498481371
 20
-278.8356416132338
 10
281.9368821181008
 20
-278.8142131193155
 10
281.9424631727869
 20
-278.7929052037393
 10
281.9475274631503
 20
-278.7718212193695
 10
281.9526262044684
 20
-278.7506855585675
 10
281.9581383572448
 20
-278.7297221525398
 10
281.9640983724343
 20
-278.7088448738992
 10
281.9748470703483
 20
-278.6712072057228
 10
281.9873872179146
 20
-278.6397190329876
 10
282.0018566189526
 20
-278.6143631302162
 10
282.016257118081
 20
-278.5890244529222
 10
282.0338960069654
 20
-278.5699213984565
 10
282.0548077365609
 20
-278.5570884177739
 10
282.0757194661564
 20
-278.5442209861365
 10
282.1005586046051
 20
-278.5373824715983
 10
282.1293251519069
 20
-278.5364867467721
 10
282.1580572482538
 20
-278.5356426983782
 10
282.191888085919
 20
-278.5406897632641
 10
282.2306798610829
 20
-278.5517312942943
 10
282.2306798610829
 20
-278.5517312942943
 10
282.2309554687217
 20
-278.5508872459005
 10
282.2309554687217
 20
-278.5508872459005
 10
282.251212630175
 20
-278.5566577808382
 10
282.2713319878089
 20
-278.5647365297511
 10
282.2912446397136
 20
-278.5751234926392
 10
282.3111572916184
 20
-278.5854932300498
 10
282.3287961805029
 20
-278.5982228578678
 10
282.3442991101865
 20
-278.6132951506157
 10
282.3596986870056
 20
-278.6283502178863
 10
282.3717220702491
 20
-278.6455412443577
 10
282.3803003580073
 20
-278.6649199064622
 10
282.3888786457656
 20
-278.6842641176119
 10
282.3922548393411
 20
-278.7059337682141
 10
282.3904633896888
 20
-278.7298255054043
 10
282.3897743705918
 20
-278.7365434416006
 10
282.3888786457656
 20
-278.7431752504096
 10
282.3876384113909
 20
-278.7497037063542
 10
282.3863981770162
 20
-278.7562493877762
 10
282.3854335502804
 20
-278.7628811965853
 10
282.3847445311833
 20
-278.7695646818267
 10
282.3847445311833
 20
-278.7695646818267
 10
282.2613412109017
 20
-278.7343730314449
 10
282.2613412109017
 20
-278.7343730314449
 10
282.2665777560392
 20
-278.7139263897399
 10
282.2629948567346
 20
-278.6967870397008
 10
282.2506614148974
 20
-278.6829033048952
 10
282.2382935221053
 20
-278.6690540210445
 10
282.2228594943314
 20
-278.6595111065504
 10
282.2042904296659
 20
-278.6541884340257
 10
282.1822762695152
 20
-278.6479355857199
 10
282.1632248914817
 20
-278.647212115668
 10
282.1471018446108
 20
-278.65201802387
 10
282.1310132486947
 20
-278.6568411575493
 10
282.1195410807288
 20
-278.6713966859745
 10
282.1125819878486
 20
-278.6957190601004
 10
282.1125819878486
 20
-278.6957190601004
 10
282.0434044705048
 20
-278.9382193313071
 10
282.0434044705048
 20
-278.9382193313071
 10
282.0363075738051
 20
-278.9631790480977
 10
282.0267991102659
 20
-278.985537717797
 10
282.0148790798869
 20
-279.0053470168372
 10
282.0148790798869
 20
-279.0053470168372
 10
281.8758350261022
 20
-278.9656767423245
 10
281.8758350261022
 20
-278.9656767423245
 97
        0
 92
        1
 93
        1
 72
     4
 94
        3
 73
     0
 74
     1
 95
       89
 96
       85
 40
0.0
 40
0.0
 40
0.0
 40
0.0
 40
1.0
 40
1.0
 40
1.0
 40
2.0
 40
2.0
 40
2.0
 40
3.0
 40
3.0
 40
3.0
 40
4.0
 40
4.0
 40
4.0
 40
5.0
 40
5.0
 40
5.0
 40
6.0
 40
6.0
 40
6.0
 40
7.0
 40
7.0
 40
7.0
 40
8.0
 40
8.0
 40
8.0
 40
9.0
 40
9.0
 40
9.0
 40
10.0
 40
10.0
 40
10.0
 40
11.0
 40
11.0
 40
11.0
 40
12.0
 40
12.0
 40
12.0
 40
13.0
 40
13.0
 40
13.0
 40
14.0
 40
14.0
 40
14.0
 40
15.0
 40
15.0
 40
15.0
 40
16.0
 40
16.0
 40
16.0
 40
17.0
 40
17.0
 40
17.0
 40
18.0
 40
18.0
 40
18.0
 40
19.0
 40
19.0
 40
19.0
 40
20.0
 40
20.0
 40
20.0
 40
21.0
 40
21.0
 40
21.0
 40
22.0
 40
22.0
 40
22.0
 40
23.0
 40
23.0
 40
23.0
 40
24.0
 40
24.0
 40
24.0
 40
25.0
 40
25.0
 40
25.0
 40
26.0
 40
26.0
 40
26.0
 40
27.0
 40
27.0
 40
27.0
 40
28.0
 40
28.0
 40
28.0
 40
28.0
 10
282.0806115017455
 20
-279.0221590828052
 10
282.0881218099033
 20
-279.0067595059861
 10
282.0937717664991
 20
-278.9923934578126
 10
282.0975613715329
 20
-278.9790781637622
 10
282.0992150173658
 20
-278.9732904033469
 10
282.1011787217924
 20
-278.9659868009182
 10
282.1033491319481
 20
-278.9572190329083
 10
282.1055539930587
 20
-278.9484684903757
 10
282.1074487955755
 20
-278.9411476624696
 10
282.1091368923633
 20
-278.9353599020544
 10
282.1107216362865
 20
-278.9295549161617
 10
282.1116862630224
 20
-278.9263682028378
 10
282.1118240668418
 20
-278.9257825366054
 10
282.1218148437491
 20
-278.9349120396412
 10
282.1350440104124
 20
-278.9421295146828
 10
282.1516493706513
 20
-278.9475038636398
 10
282.1656020073665
 20
-278.9514657234479
 10
282.1802436631789
 20
-278.9512590177188
 10
282.1956087890431
 20
-278.946866520975
 10
282.2109050129976
 20
-278.9424740242314
 10
282.2208268879951
 20
-278.9324143454144
 10
282.2253055121259
 20
-278.9167908373888
 10
282.2294396267083
 20
-278.9023042108734
 10
282.2294396267083
 20
-278.8902291511976
 10
282.2252366102163
 20
-278.8806001093163
 10
282.2211369465888
 20
-278.8709538419576
 10
282.2149013237605
 20
-278.8627372892253
 10
282.2064608398216
 20
-278.8559676765968
 10
282.1980548068376
 20
-278.8491808384908
 10
282.1884429904338
 20
-278.8434447545079
 10
282.1775564887004
 20
-278.8387766501253
 10
282.166669986967
 20
-278.8341257712203
 10
282.1561968966918
 20
-278.8294404413603
 10
282.1462750216943
 20
-278.8247206605456
 10
282.1462750216943
 20
-278.8247206605456
 10
282.1723199435628
 20
-278.7334600811413
 10
282.1723199435628
 20
-278.7334600811413
 10
282.1777631944295
 20
-278.7362506084843
 10
282.1813460937341
 20
-278.7378698033624
 10
282.1831375433865
 20
-278.7383865676852
 10
282.1842744248966
 20
-278.7386966262789
 10
282.1851356987679
 20
-278.7389722339177
 10
282.1857213650004
 20
-278.7391272632145
 10
282.1863070312329
 20
-278.7393167434662
 10
282.1872716579688
 20
-278.739712929447
 10
282.1886496961629
 20
-278.7404363994989
 10
282.190027734357
 20
-278.7411598695508
 10
282.1934039279325
 20
-278.7429340937257
 10
282.1988816297541
 20
-278.7457073955914
 10
282.2218948675956
 20
-278.7573001418992
 10
282.2448736544821
 20
-278.769013466549
 10
282.2678179904139
 20
-278.7808645950183
 10
282.2907623263457
 20
-278.7927673999199
 10
282.3102960177471
 20
-278.8065994582931
 10
282.3264190646181
 20
-278.8224813484801
 10
282.3425765624439
 20
-278.838397689622
 10
282.3541520832743
 20
-278.8571734600166
 10
282.3611111761545
 20
-278.8788947870511
 10
282.3680702690347
 20
-278.9006505650405
 10
282.3671056422988
 20
-278.9271261238446
 10
282.358182844992
 20
-278.9584248163281
 10
282.3515682616604
 20
-278.9816103089438
 10
282.3414741318886
 20
-279.0011440003452
 10
282.3278660047218
 20
-279.0170086650547
 10
282.3142578775551
 20
-279.0328388788095
 10
282.2983415364133
 20
-279.0452412225564
 10
282.2801514322511
 20
-279.0541640198632
 10
282.2619268771342
 20
-279.0630695916926
 10
282.2419797742746
 20
-279.0681683330107
 10
282.2203101236723
 20
-279.06951192025
 10
282.1986404730701
 20
-279.0708210565344
 10
282.1767641167388
 20
-279.0683922642173
 10
282.154749956588
 20
-279.0621049649567
 10
282.1437601019901
 20
-279.0589699280651
 10
282.1352507161415
 20
-279.0566961650449
 10
282.1293940538166
 20
-279.0553525778056
 10
282.1235373914917
 20
-279.0539917650889
 10
282.1182663953992
 20
-279.0521830899592
 10
282.1135810655393
 20
-279.0499093269389
 10
282.1088957356794
 20
-279.0476355639186
 10
282.104313758684
 20
-279.0444143996399
 10
282.0998351345531
 20
-279.0403491869673
 10
282.0953565104223
 20
-279.0362322978625
 10
282.0889486328198
 20
-279.0302206062407
 10
282.0806115017455
 20
-279.0221590828052
 97
        0
 75
     2
 76
     1
 98
        0
  0
POLYLINE
  5
4E
330
3F
100
AcDbEntity
  8
Layer 1
370
     0
100
AcDb2dPolyline
 66
     1
 10
0.0
 20
0.0
 30
0.0
  0
VERTEX
  5
4F
330
4E
100
AcDbEntity
  8
Layer 1
370
     0
100
AcDbVertex
100
AcDb2dVertex
 10
281.6930382596548
 20
-278.9400624573917
 30
0.0
  0
VERTEX
  5
50
330
4E
100
AcDbEntity
  8
Layer 1
370
     0
100
AcDbVertex
100
AcDb2dVertex
 10
281.6940028863907
 20
-278.4555959047784
 30
0.0
  0
VERTEX
  5
51
330
4E
100
AcDbEntity
  8
Layer 1
370
     0
100
AcDbVertex
100
AcDb2dVertex
 10
281.8331847439948
 20
-278.4559059633721
 30
0.0
  0
VERTEX
  5
52
330
4E
100
AcDbEntity
  8
Layer 1
370
     0
100
AcDbVertex
100
AcDb2dVertex
 10
281.8322201172589
 20
-278.9403725159854
 30
0.0
  0
VERTEX
  5
53
330
4E
100
AcDbEntity
  8
Layer 1
370
     0
100
AcDbVertex
100
AcDb2dVertex
 10
281.6930382596548
 20
-278.9400624573917
 30
0.0
  0
SEQEND
  5
54
330
4E
100
AcDbEntity
  8
Layer 1
370
     0
  0
SPLINE
  5
55
330
3F
100
AcDbEntity
  8
Layer 1
370
     0
100
AcDbSpline
210
0.0
220
0.0
230
1.0
 70
    11
 71
     3
 72
   104
 73
   100
 74
     0
 42
0.0000000001
 43
0.0000000001
 40
0.0
 40
0.0
 40
0.0
 40
0.0
 40
1.0
 40
1.0
 40
1.0
 40
2.0
 40
2.0
 40
2.0
 40
3.0
 40
3.0
 40
3.0
 40
4.0
 40
4.0
 40
4.0
 40
5.0
 40
5.0
 40
5.0
 40
6.0
 40
6.0
 40
6.0
 40
7.0
 40
7.0
 40
7.0
 40
8.0
 40
8.0
 40
8.0
 40
9.0
 40
9.0
 40
9.0
 40
10.0
 40
10.0
 40
10.0
 40
11.0
 40
11.0
 40
11.0
 40
12.0
 40
12.0
 40
12.0
 40
13.0
 40
13.0
 40
13.0
 40
14.0
 40
14.0
 40
14.0
 40
15.0
 40
15.0
 40
15.0
 40
16.0
 40
16.0
 40
16.0
 40
17.0
 40
17.0
 40
17.0
 40
18.0
 40
18.0
 40
18.0
 40
19.0
 40
19.0
 40
19.0
 40
20.0
 40
20.0
 40
20.0
 40
21.0
 40
21.0
 40
21.0
 40
22.0
 40
22.0
 40
22.0
 40
23.0
 40
23.0
 40
23.0
 40
24.0
 40
24.0
 40
24.0
 40
25.0
 40
25.0
 40
25.0
 40
26.0
 40
26.0
 40
26.0
 40
27.0
 40
27.0
 40
27.0
 40
28.0
 40
28.0
 40
28.0
 40
29.0
 40
29.0
 40
29.0
 40
30.0
 40
30.0
 40
30.0
 40
31.0
 40
31.0
 40
31.0
 40
32.0
 40
32.0
 40
32.0
 40
33.0
 40
33.0
 40
33.0
 40
33.0
 10
281.1307986764621
 20
-278.9389772523139
 30
0.0
 10
281.1307986764621
 20
-278.9389772523139
 30
0.0
 10
281.1313498917397
 20
-278.6524486608056
 30
0.0
 10
281.1313498917397
 20
-278.6524486608056
 30
0.0
 10
281.1314187936494
 20
-278.6241299759168
 30
0.0
 10
281.1332791452115
 20
-278.5973271330416
 30
0.0
 10
281.1369309464258
 20
-278.5720401321799
 30
0.0
 10
281.1405827476402
 20
-278.5467186803633
 30
0.0
 10
281.1480241538883
 20
-278.5244289125737
 30
0.0
 10
281.1592207142154
 20
-278.5051708288112
 30
0.0
 10
281.1704172745424
 20
-278.4858782940938
 30
0.0
 10
281.1862647137746
 20
-278.4705820701393
 30
0.0
 10
281.2067974828667
 20
-278.4591960295605
 30
0.0
 10
281.227261350049
 20
-278.4477583125495
 30
0.0
 10
281.2544087024729
 20
-278.4420911304763
 30
0.0
 10
281.2881706382283
 20
-278.4421255814311
 30
0.0
 10
281.320692339609
 20
-278.4421944833408
 30
0.0
 10
281.3488732206784
 20
-278.4494980857696
 30
0.0
 10
281.3726443795266
 20
-278.4640019377625
 30
0.0
 10
281.3964155383748
 20
-278.4785230152328
 30
0.0
 10
281.4170172093766
 20
-278.4987457257312
 30
0.0
 10
281.4344149415771
 20
-278.5247045202125
 30
0.0
 10
281.4465761286401
 20
-278.4975916187436
 30
0.0
 10
281.4606321182199
 20
-278.4769727222644
 30
0.0
 10
281.4766173612715
 20
-278.4628822817297
 30
0.0
 10
281.4925681533682
 20
-278.4487573902402
 30
0.0
 10
281.5153402345256
 20
-278.4416949444955
 30
0.0
 10
281.5448647028343
 20
-278.4417466209277
 30
0.0
 10
281.5581283204525
 20
-278.44179829736
 30
0.0
 10
281.5712196832964
 20
-278.4451228145033
 30
0.0
 10
281.584173242321
 20
-278.4517718487898
 30
0.0
 10
281.5971268013455
 20
-278.4584381085538
 30
0.0
 10
281.607048676343
 20
-278.4644842511304
 30
0.0
 10
281.6140077692232
 20
-278.4698930510422
 30
0.0
 10
281.6208979601937
 20
-278.4753707528638
 30
0.0
 10
281.6249631728663
 20
-278.4786608190522
 30
0.0
 10
281.6261345053313
 20
-278.4798838279494
 30
0.0
 10
281.6261345053313
 20
-278.4798838279494
 30
0.0
 10
281.6252387805051
 20
-278.4798838279494
 30
0.0
 10
281.6252387805051
 20
-278.4798838279494
 30
0.0
 10
281.6252387805051
 20
-278.4798838279494
 30
0.0
 10
281.625032074776
 20
-278.5847525345205
 30
0.0
 10
281.625032074776
 20
-278.5847525345205
 30
0.0
 10
281.6190376086317
 20
-278.5804978415962
 30
0.0
 10
281.6122507705257
 20
-278.576570432743
 30
0.0
 10
281.6047404623679
 20
-278.5729186315286
 30
0.0
 10
281.5971957032552
 20
-278.5693185067465
 30
0.0
 10
281.5898231989167
 20
-278.5674753806619
 30
0.0
 10
281.5825884983977
 20
-278.5674753806619
 30
0.0
 10
281.5741824654137
 20
-278.5674409297071
 30
0.0
 10
281.5676367839918
 20
-278.570145329663
 30
0.0
 10
281.5630892579512
 20
-278.5755713550523
 30
0.0
 10
281.5586106338204
 20
-278.5809457040093
 30
0.0
 10
281.555441145974
 20
-278.5883526593025
 30
0.0
 10
281.5536152453668
 20
-278.5976888680676
 30
0.0
 10
281.5517893447596
 20
-278.6070250768326
 30
0.0
 10
281.5506869142043
 20
-278.618032156908
 30
0.0
 10
281.5503768556106
 20
-278.6306584318614
 30
0.0
 10
281.550066797017
 20
-278.6433363832471
 30
0.0
 10
281.5498600912879
 20
-278.6568928339816
 30
0.0
 10
281.5498600912879
 20
-278.6713277840648
 30
0.0
 10
281.5498600912879
 20
-278.6713277840648
 30
0.0
 10
281.5493088760102
 20
-278.9398040752303
 30
0.0
 10
281.5493088760102
 20
-278.9398040752303
 30
0.0
 10
281.5493088760102
 20
-278.9398040752303
 30
0.0
 10
281.4101270184061
 20
-278.9395112421141
 30
0.0
 10
281.4101270184061
 20
-278.9395112421141
 30
0.0
 10
281.4101270184061
 20
-278.9395112421141
 30
0.0
 10
281.4106437827289
 20
-278.6629562020356
 30
0.0
 10
281.4106437827289
 20
-278.6629562020356
 30
0.0
 10
281.4106782336838
 20
-278.6509328187921
 30
0.0
 10
281.4096447050382
 20
-278.6391505922326
 30
0.0
 10
281.407577647747
 20
-278.6276784242667
 30
0.0
 10
281.4054416885462
 20
-278.6162234817782
 30
0.0
 10
281.4017209854221
 20
-278.6061465774839
 30
0.0
 10
281.3963121855103
 20
-278.5973788094739
 30
0.0
 10
281.3909033855984
 20
-278.5886282669414
 30
0.0
 10
281.3837031360343
 20
-278.5815313702417
 30
0.0
 10
281.3747114368177
 20
-278.5761053448525
 30
0.0
 10
281.3656163847367
 20
-278.5706448685083
 30
0.0
 10
281.3539030600869
 20
-278.567923243075
 30
0.0
 10
281.3394336590488
 20
-278.567923243075
 30
0.0
 10
281.3261700414306
 20
-278.5678887921202
 30
0.0
 10
281.3150423830132
 20
-278.5704037118244
 30
0.0
 10
281.3059473309322
 20
-278.5754852276651
 30
0.0
 10
281.2969211807608
 20
-278.5806356454156
 30
0.0
 10
281.2898242840612
 20
-278.5872330032698
 30
0.0
 10
281.2846566408333
 20
-278.5953462031376
 30
0.0
 10
281.2795578995152
 20
-278.6034938539602
 30
0.0
 10
281.2759060983008
 20
-278.6129678665446
 30
0.0
 10
281.2737701391
 20
-278.6238026918458
 30
0.0
 10
281.2716341798991
 20
-278.6346547426243
 30
0.0
 10
281.2706006512535
 20
-278.6457824010417
 30
0.0
 10
281.2705317493438
 20
-278.6572373435301
 30
0.0
 10
281.2705317493438
 20
-278.6572373435301
 30
0.0
 10
281.2681890844138
 20
-278.9392356344753
 30
0.0
 10
281.2681890844138
 20
-278.9392356344753
 30
0.0
 10
281.2681890844138
 20
-278.9392356344753
 30
0.0
 10
281.1307986764621
 20
-278.9389772523139
 30
0.0
 10
281.1307986764621
 20
-278.9389772523139
 30
0.0
  0
HATCH
  5
56
330
3F
100
AcDbEntity
  8
Layer 1
 62
     7
420
 15724268
100
AcDbHatch
 10
0.0
 20
0.0
 30
0.0
210
0.0
220
0.0
230
1.0
  2
SOLID
 70
     1
 71
     0
 91
        2
 92
        1
 93
        4
 72
     1
 10
281.6930382596548
 20
-278.9400624573917
 11
281.6940028863907
 21
-278.4555959047784
 72
     1
 10
281.6940028863907
 20
-278.4555959047784
 11
281.8331847439948
 21
-278.4559059633721
 72
     1
 10
281.8331847439948
 20
-278.4559059633721
 11
281.8322201172589
 21
-278.9403725159854
 72
     1
 10
281.8322201172589
 20
-278.9403725159854
 11
281.6930382596548
 21
-278.9400624573917
 97
        0
 92
        1
 93
        1
 72
     4
 94
        3
 73
     0
 74
     1
 95
      104
 96
      100
 40
0.0
 40
0.0
 40
0.0
 40
0.0
 40
1.0
 40
1.0
 40
1.0
 40
2.0
 40
2.0
 40
2.0
 40
3.0
 40
3.0
 40
3.0
 40
4.0
 40
4.0
 40
4.0
 40
5.0
 40
5.0
 40
5.0
 40
6.0
 40
6.0
 40
6.0
 40
7.0
 40
7.0
 40
7.0
 40
8.0
 40
8.0
 40
8.0
 40
9.0
 40
9.0
 40
9.0
 40
10.0
 40
10.0
 40
10.0
 40
11.0
 40
11.0
 40
11.0
 40
12.0
 40
12.0
 40
12.0
 40
13.0
 40
13.0
 40
13.0
 40
14.0
 40
14.0
 40
14.0
 40
15.0
 40
15.0
 40
15.0
 40
16.0
 40
16.0
 40
16.0
 40
17.0
 40
17.0
 40
17.0
 40
18.0
 40
18.0
 40
18.0
 40
19.0
 40
19.0
 40
19.0
 40
20.0
 40
20.0
 40
20.0
 40
21.0
 40
21.0
 40
21.0
 40
22.0
 40
22.0
 40
22.0
 40
23.0
 40
23.0
 40
23.0
 40
24.0
 40
24.0
 40
24.0
 40
25.0
 40
25.0
 40
25.0
 40
26.0
 40
26.0
 40
26.0
 40
27.0
 40
27.0
 40
27.0
 40
28.0
 40
28.0
 40
28.0
 40
29.0
 40
29.0
 40
29.0
 40
30.0
 40
30.0
 40
30.0
 40
31.0
 40
31.0
 40
31.0
 40
32.0
 40
32.0
 40
32.0
 40
33.0
 40
33.0
 40
33.0
 40
33.0
 10
281.1307986764621
 20
-278.9389772523139
 10
281.1307986764621
 20
-278.9389772523139
 10
281.1313498917397
 20
-278.6524486608056
 10
281.1313498917397
 20
-278.6524486608056
 10
281.1314187936494
 20
-278.6241299759168
 10
281.1332791452115
 20
-278.5973271330416
 10
281.1369309464258
 20
-278.5720401321799
 10
281.1405827476402
 20
-278.5467186803633
 10
281.1480241538883
 20
-278.5244289125737
 10
281.1592207142154
 20
-278.5051708288112
 10
281.1704172745424
 20
-278.4858782940938
 10
281.1862647137746
 20
-278.4705820701393
 10
281.2067974828667
 20
-278.4591960295605
 10
281.227261350049
 20
-278.4477583125495
 10
281.2544087024729
 20
-278.4420911304763
 10
281.2881706382283
 20
-278.4421255814311
 10
281.320692339609
 20
-278.4421944833408
 10
281.3488732206784
 20
-278.4494980857696
 10
281.3726443795266
 20
-278.4640019377625
 10
281.3964155383748
 20
-278.4785230152328
 10
281.4170172093766
 20
-278.4987457257312
 10
281.4344149415771
 20
-278.5247045202125
 10
281.4465761286401
 20
-278.4975916187436
 10
281.4606321182199
 20
-278.4769727222644
 10
281.4766173612715
 20
-278.4628822817297
 10
281.4925681533682
 20
-278.4487573902402
 10
281.5153402345256
 20
-278.4416949444955
 10
281.5448647028343
 20
-278.4417466209277
 10
281.5581283204525
 20
-278.44179829736
 10
281.5712196832964
 20
-278.4451228145033
 10
281.584173242321
 20
-278.4517718487898
 10
281.5971268013455
 20
-278.4584381085538
 10
281.607048676343
 20
-278.4644842511304
 10
281.6140077692232
 20
-278.4698930510422
 10
281.6208979601937
 20
-278.4753707528638
 10
281.6249631728663
 20
-278.4786608190522
 10
281.6261345053313
 20
-278.4798838279494
 10
281.6261345053313
 20
-278.4798838279494
 10
281.6252387805051
 20
-278.4798838279494
 10
281.6252387805051
 20
-278.4798838279494
 10
281.6252387805051
 20
-278.4798838279494
 10
281.625032074776
 20
-278.5847525345205
 10
281.625032074776
 20
-278.5847525345205
 10
281.6190376086317
 20
-278.5804978415962
 10
281.6122507705257
 20
-278.576570432743
 10
281.6047404623679
 20
-278.5729186315286
 10
281.5971957032552
 20
-278.5693185067465
 10
281.5898231989167
 20
-278.5674753806619
 10
281.5825884983977
 20
-278.5674753806619
 10
281.5741824654137
 20
-278.5674409297071
 10
281.5676367839918
 20
-278.570145329663
 10
281.5630892579512
 20
-278.5755713550523
 10
281.5586106338204
 20
-278.5809457040093
 10
281.555441145974
 20
-278.5883526593025
 10
281.5536152453668
 20
-278.5976888680676
 10
281.5517893447596
 20
-278.6070250768326
 10
281.5506869142043
 20
-278.618032156908
 10
281.5503768556106
 20
-278.6306584318614
 10
281.550066797017
 20
-278.6433363832471
 10
281.5498600912879
 20
-278.6568928339816
 10
281.5498600912879
 20
-278.6713277840648
 10
281.5498600912879
 20
-278.6713277840648
 10
281.5493088760102
 20
-278.9398040752303
 10
281.5493088760102
 20
-278.9398040752303
 10
281.5493088760102
 20
-278.9398040752303
 10
281.4101270184061
 20
-278.9395112421141
 10
281.4101270184061
 20
-278.9395112421141
 10
281.4101270184061
 20
-278.9395112421141
 10
281.4106437827289
 20
-278.6629562020356
 10
281.4106437827289
 20
-278.6629562020356
 10
281.4106782336838
 20
-278.6509328187921
 10
281.4096447050382
 20
-278.6391505922326
 10
281.407577647747
 20
-278.6276784242667
 10
281.4054416885462
 20
-278.6162234817782
 10
281.4017209854221
 20
-278.6061465774839
 10
281.3963121855103
 20
-278.5973788094739
 10
281.3909033855984
 20
-278.5886282669414
 10
281.3837031360343
 20
-278.5815313702417
 10
281.3747114368177
 20
-278.5761053448525
 10
281.3656163847367
 20
-278.5706448685083
 10
281.3539030600869
 20
-278.567923243075
 10
281.3394336590488
 20
-278.567923243075
 10
281.3261700414306
 20
-278.5678887921202
 10
281.3150423830132
 20
-278.5704037118244
 10
281.3059473309322
 20
-278.5754852276651
 10
281.2969211807608
 20
-278.5806356454156
 10
281.2898242840612
 20
-278.5872330032698
 10
281.2846566408333
 20
-278.5953462031376
 10
281.2795578995152
 20
-278.6034938539602
 10
281.2759060983008
 20
-278.6129678665446
 10
281.2737701391
 20
-278.6238026918458
 10
281.2716341798991
 20
-278.6346547426243
 10
281.2706006512535
 20
-278.6457824010417
 10
281.2705317493438
 20
-278.6572373435301
 10
281.2705317493438
 20
-278.6572373435301
 10
281.2681890844138
 20
-278.9392356344753
 10
281.2681890844138
 20
-278.9392356344753
 10
281.2681890844138
 20
-278.9392356344753
 10
281.1307986764621
 20
-278.9389772523139
 10
281.1307986764621
 20
-278.9389772523139
 97
        0
 75
     2
 76
     1
 98
        0
  0
SPLINE
  5
57
330
3F
100
AcDbEntity
  8
Layer 1
370
     0
100
AcDbSpline
210
0.0
220
0.0
230
1.0
 70
    11
 71
     3
 72
    89
 73
    85
 74
     0
 42
0.0000000001
 43
0.0000000001
 40
0.0
 40
0.0
 40
0.0
 40
0.0
 40
1.0
 40
1.0
 40
1.0
 40
2.0
 40
2.0
 40
2.0
 40
3.0
 40
3.0
 40
3.0
 40
4.0
 40
4.0
 40
4.0
 40
5.0
 40
5.0
 40
5.0
 40
6.0
 40
6.0
 40
6.0
 40
7.0
 40
7.0
 40
7.0
 40
8.0
 40
8.0
 40
8.0
 40
9.0
 40
9.0
 40
9.0
 40
10.0
 40
10.0
 40
10.0
 40
11.0
 40
11.0
 40
11.0
 40
12.0
 40
12.0
 40
12.0
 40
13.0
 40
13.0
 40
13.0
 40
14.0
 40
14.0
 40
14.0
 40
15.0
 40
15.0
 40
15.0
 40
16.0
 40
16.0
 40
16.0
 40
17.0
 40
17.0
 40
17.0
 40
18.0
 40
18.0
 40
18.0
 40
19.0
 40
19.0
 40
19.0
 40
20.0
 40
20.0
 40
20.0
 40
21.0
 40
21.0
 40
21.0
 40
22.0
 40
22.0
 40
22.0
 40
23.0
 40
23.0
 40
23.0
 40
24.0
 40
24.0
 40
24.0
 40
25.0
 40
25.0
 40
25.0
 40
26.0
 40
26.0
 40
26.0
 40
27.0
 40
27.0
 40
27.0
 40
28.0
 40
28.0
 40
28.0
 40
28.0
 10
280.6228882490717
 20
-279.1002421719784
 30
0.0
 10
280.6194776045413
 20
-279.0834817824427
 30
0.0
 10
280.6152401370944
 20
-279.0686334209012
 30
0.0
 10
280.6101069448214
 20
-279.055731538309
 30
0.0
 10
280.6079020837108
 20
-279.050116032668
 30
0.0
 10
280.6050082035032
 20
-279.0431569397878
 30
0.0
 10
280.6013908532437
 20
-279.0348714851458
 30
0.0
 10
280.5977735029842
 20
-279.0265688050263
 30
0.0
 10
280.5948796227766
 20
-279.019644163101
 30
0.0
 10
280.5926403107112
 20
-279.0140631084149
 30
0.0
 10
280.5904354496006
 20
-279.0084476027739
 30
0.0
 10
280.589195215226
 20
-279.0053642423146
 30
0.0
 10
280.588954058542
 20
-279.0047958015596
 30
0.0
 10
280.6024243818893
 20
-279.0059499085471
 30
0.0
 10
280.6173416453404
 20
-279.0036244690946
 30
0.0
 10
280.6338092017599
 20
-278.9977333558148
 30
0.0
 10
280.6472795251073
 20
-278.9924106832901
 30
0.0
 10
280.658786144028
 20
-278.9833500821638
 30
0.0
 10
280.6682601566124
 20
-278.9705171014813
 30
0.0
 10
280.6777686201517
 20
-278.9577013462762
 30
0.0
 10
280.6795256188492
 20
-278.9437142586061
 30
0.0
 10
280.6735311527049
 20
-278.9285386129935
 30
0.0
 10
280.6679845489736
 20
-278.9145515253234
 30
0.0
 10
280.6606120446352
 20
-278.9050086108293
 30
0.0
 10
280.6514825415993
 20
-278.8998409676014
 30
0.0
 10
280.6423530385633
 20
-278.8947250008058
 30
0.0
 10
280.6323622616561
 20
-278.8920550518047
 30
0.0
 10
280.6215446618324
 20
-278.8917966696433
 30
0.0
 10
280.6107270620088
 20
-278.8915210620045
 30
0.0
 10
280.5996338545463
 20
-278.8928646492438
 30
0.0
 10
280.5881272356255
 20
-278.8957757549288
 30
0.0
 10
280.5766206167048
 20
-278.8987213115687
 30
0.0
 10
280.5655274092423
 20
-278.9013051331826
 30
0.0
 10
280.5547787113283
 20
-278.9036133471578
 30
0.0
 10
280.5547787113283
 20
-278.9036133471578
 30
0.0
 10
280.5198454431078
 20
-278.8153672263031
 30
0.0
 10
280.5198454431078
 20
-278.8153672263031
 30
0.0
 10
280.5259088111619
 20
-278.8142992467027
 30
0.0
 10
280.5297673181054
 20
-278.8133862963991
 30
0.0
 10
280.5314554148932
 20
-278.8127145027794
 30
0.0
 10
280.5325922964033
 20
-278.8122838658438
 30
0.0
 10
280.5334191193198
 20
-278.8119393562953
 30
0.0
 10
280.5339703345974
 20
-278.8117326505662
 30
0.0
 10
280.534521549875
 20
-278.8115087193596
 30
0.0
 10
280.5355550785206
 20
-278.8112675626757
 30
0.0
 10
280.5370709205341
 20
-278.8109747295594
 30
0.0
 10
280.5385867625477
 20
-278.810716347398
 30
0.0
 10
280.5423763675814
 20
-278.8100101028235
 30
0.0
 10
280.5484397356354
 20
-278.8089421232231
 30
0.0
 10
280.5737267364972
 20
-278.8041017640663
 30
0.0
 10
280.5991170902234
 20
-278.799399208729
 30
0.0
 10
280.6245074439498
 20
-278.7948516826884
 30
0.0
 10
280.6499322486309
 20
-278.7903213821253
 30
0.0
 10
280.6738756622534
 20
-278.7894256572991
 30
0.0
 10
280.6963376848172
 20
-278.7921989591648
 30
0.0
 10
280.7188341583359
 20
-278.7949894865078
 30
0.0
 10
280.7394702802926
 20
-278.8028443042142
 30
0.0
 10
280.7582115997323
 20
-278.8158150887162
 30
0.0
 10
280.7769873701269
 20
-278.828820324173
 30
0.0
 10
280.7922835940814
 20
-278.8504555238204
 30
0.0
 10
280.8043069773249
 20
-278.8807206876583
 30
0.0
 10
280.8131608727221
 20
-278.903096582835
 30
0.0
 10
280.8170193796655
 20
-278.9247662334372
 30
0.0
 10
280.8158824981554
 20
-278.9456435120778
 30
0.0
 10
280.8147456166453
 20
-278.966503565241
 30
0.0
 10
280.8096468753271
 20
-278.9860028056875
 30
0.0
 10
280.8006207251557
 20
-279.0041412334173
 30
0.0
 10
280.7916634768941
 20
-279.0222968866246
 30
0.0
 10
280.7789510745535
 20
-279.0385060608827
 30
0.0
 10
280.7625524200437
 20
-279.0527687561917
 30
0.0
 10
280.7461537655339
 20
-279.0670142260232
 30
0.0
 10
280.7273090932296
 20
-279.0783830411245
 30
0.0
 10
280.7060184031308
 20
-279.0868235250633
 30
0.0
 10
280.6953730580814
 20
-279.0910093160779
 30
0.0
 10
280.6873115346459
 20
-279.094368284176
 30
0.0
 10
280.6818338328243
 20
-279.0968832038803
 30
0.0
 10
280.6763216800479
 20
-279.0993292216748
 30
0.0
 10
280.6710162330006
 20
-279.101155122282
 30
0.0
 10
280.6659174916825
 20
-279.1021714254501
 30
0.0
 10
280.6608532013191
 20
-279.1032394050505
 30
0.0
 10
280.6552376956782
 20
-279.1034805617345
 30
0.0
 10
280.649208778579
 20
-279.1029810228891
 30
0.0
 10
280.6431798614798
 20
-279.1024125821341
 30
0.0
 10
280.6343948679924
 20
-279.1015513082628
 30
0.0
 10
280.6228882490717
 20
-279.1002421719784
 30
0.0
  0
SPLINE
  5
58
330
3F
100
AcDbEntity
  8
Layer 1
370
     0
100
AcDbSpline
210
0.0
220
0.0
230
1.0
 70
    11
 71
     3
 72
    74
 73
    70
 74
     0
 42
0.0000000001
 43
0.0000000001
 40
0.0
 40
0.0
 40
0.0
 40
0.0
 40
1.0
 40
1.0
 40
1.0
 40
2.0
 40
2.0
 40
2.0
 40
3.0
 40
3.0
 40
3.0
 40
4.0
 40
4.0
 40
4.0
 40
5.0
 40
5.0
 40
5.0
 40
6.0
 40
6.0
 40
6.0
 40
7.0
 40
7.0
 40
7.0
 40
8.0
 40
8.0
 40
8.0
 40
9.0
 40
9.0
 40
9.0
 40
10.0
 40
10.0
 40
10.0
 40
11.0
 40
11.0
 40
11.0
 40
12.0
 40
12.0
 40
12.0
 40
13.0
 40
13.0
 40
13.0
 40
14.0
 40
14.0
 40
14.0
 40
15.0
 40
15.0
 40
15.0
 40
16.0
 40
16.0
 40
16.0
 40
17.0
 40
17.0
 40
17.0
 40
18.0
 40
18.0
 40
18.0
 40
19.0
 40
19.0
 40
19.0
 40
20.0
 40
20.0
 40
20.0
 40
21.0
 40
21.0
 40
21.0
 40
22.0
 40
22.0
 40
22.0
 40
23.0
 40
23.0
 40
23.0
 40
23.0
 10
280.4260010420896
 20
-279.180082259849
 30
0.0
 10
280.4243473962567
 20
-279.156156071704
 30
0.0
 10
280.4201443797647
 20
-279.1328500007463
 30
0.0
 10
280.4134608945233
 20
-279.110250174363
 30
0.0
 10
280.406777409282
 20
-279.0875986715475
 30
0.0
 10
280.3991292973047
 20
-279.0653433547128
 30
0.0
 10
280.3904476566819
 20
-279.0435186748138
 30
0.0
 10
280.382248329427
 20
-279.0227791999926
 30
0.0
 10
280.3737044926236
 20
-279.002470362107
 30
0.0
 10
280.3648850481813
 20
-278.9826610630668
 30
0.0
 10
280.3560656037391
 20
-278.9628000875944
 30
0.0
 10
280.3476940217099
 20
-278.9428013083025
 30
0.0
 10
280.3397014001841
 20
-278.9226302742363
 30
0.0
 10
280.325266450101
 20
-278.8862328404347
 30
0.0
 10
280.3161024961102
 20
-278.8535388842797
 30
0.0
 10
280.3121061853473
 20
-278.8246517586358
 30
0.0
 10
280.3081098745844
 20
-278.7958163094243
 30
0.0
 10
280.3105214414241
 20
-278.7698747404203
 30
0.0
 10
280.3192719839566
 20
-278.7469648554434
 30
0.0
 10
280.328056977444
 20
-278.7240377449891
 30
0.0
 10
280.3435943580825
 20
-278.7035222013744
 30
0.0
 10
280.3658496749172
 20
-278.68528042078
 30
0.0
 10
280.3881394427067
 20
-278.6671075420954
 30
0.0
 10
280.4180428715187
 20
-278.6505538582887
 30
0.0
 10
280.4555599613531
 20
-278.6357399477022
 30
0.0
 10
280.4555599613531
 20
-278.6357399477022
 30
0.0
 10
280.4552154518046
 20
-278.6348786738308
 30
0.0
 10
280.4552154518046
 20
-278.6348786738308
 30
0.0
 10
280.4748524960705
 20
-278.627127208989
 30
0.0
 10
280.4957297747111
 20
-278.6212533211867
 30
0.0
 10
280.5178128367716
 20
-278.6174120397206
 30
0.0
 10
280.5399648007417
 20
-278.6134846308674
 30
0.0
 10
280.5616689022988
 20
-278.6128300627253
 30
0.0
 10
280.5830973962171
 20
-278.6153794333843
 30
0.0
 10
280.6045258901353
 20
-278.617911578566
 30
0.0
 10
280.6245418949046
 20
-278.6242505542588
 30
0.0
 10
280.6431454105249
 20
-278.6343619095081
 30
0.0
 10
280.6617144751905
 20
-278.6445077157121
 30
0.0
 10
280.6776308163323
 20
-278.6596144594149
 30
0.0
 10
280.6907566301311
 20
-278.6796993660939
 30
0.0
 10
280.6943050784809
 20
-278.6854182245995
 30
0.0
 10
280.6975779191919
 20
-278.691257661447
 30
0.0
 10
280.7005751522641
 20
-278.6971832256816
 30
0.0
 10
280.7035723853363
 20
-278.7031604663485
 30
0.0
 10
280.7068452260472
 20
-278.7089654522412
 30
0.0
 10
280.7104281253519
 20
-278.7146843107466
 30
0.0
 10
280.7104281253519
 20
-278.7146843107466
 30
0.0
 10
280.591055566788
 20
-278.7619165698494
 30
0.0
 10
280.591055566788
 20
-278.7619165698494
 30
0.0
 10
280.5827528866685
 20
-278.7425206822675
 30
0.0
 10
280.5694548180954
 20
-278.7310829652565
 30
0.0
 10
280.5512647139333
 20
-278.7276034188163
 30
0.0
 10
280.5330057078615
 20
-278.7241238723763
 30
0.0
 10
280.5149534075188
 20
-278.7259497729834
 30
0.0
 10
280.4969700090858
 20
-278.7330294442056
 30
0.0
 10
280.4757137699418
 20
-278.7414527026671
 30
0.0
 10
280.4601419383485
 20
-278.7524770082198
 30
0.0
 10
280.4503234162155
 20
-278.766102360864
 30
0.0
 10
280.4404704431277
 20
-278.7797104880307
 30
0.0
 10
280.4401948354889
 20
-278.7982795526962
 30
0.0
 10
280.449496593299
 20
-278.8218095548605
 30
0.0
 10
280.449496593299
 20
-278.8218095548605
 30
0.0
 10
280.5423074656717
 20
-279.056299979064
 30
0.0
 10
280.5423074656717
 20
-279.056299979064
 30
0.0
 10
280.5518503801658
 20
-279.0803984219834
 30
0.0
 10
280.5579137482199
 20
-279.1039628751025
 30
0.0
 10
280.5604975698338
 20
-279.1268899855568
 30
0.0
 10
280.5604975698338
 20
-279.1268899855568
 30
0.0
 10
280.4260010420896
 20
-279.180082259849
 30
0.0
 10
280.4260010420896
 20
-279.180082259849
 30
0.0
  0
HATCH
  5
59
330
3F
100
AcDbEntity
  8
Layer 1
 62
     7
420
 15724268
100
AcDbHatch
 10
0.0
 20
0.0
 30
0.0
210
0.0
220
0.0
230
1.0
  2
SOLID
 70
     1
 71
     0
 91
        2
 92
        1
 93
        1
 72
     4
 94
        3
 73
     0
 74
     1
 95
       89
 96
       85
 40
0.0
 40
0.0
 40
0.0
 40
0.0
 40
1.0
 40
1.0
 40
1.0
 40
2.0
 40
2.0
 40
2.0
 40
3.0
 40
3.0
 40
3.0
 40
4.0
 40
4.0
 40
4.0
 40
5.0
 40
5.0
 40
5.0
 40
6.0
 40
6.0
 40
6.0
 40
7.0
 40
7.0
 40
7.0
 40
8.0
 40
8.0
 40
8.0
 40
9.0
 40
9.0
 40
9.0
 40
10.0
 40
10.0
 40
10.0
 40
11.0
 40
11.0
 40
11.0
 40
12.0
 40
12.0
 40
12.0
 40
13.0
 40
13.0
 40
13.0
 40
14.0
 40
14.0
 40
14.0
 40
15.0
 40
15.0
 40
15.0
 40
16.0
 40
16.0
 40
16.0
 40
17.0
 40
17.0
 40
17.0
 40
18.0
 40
18.0
 40
18.0
 40
19.0
 40
19.0
 40
19.0
 40
20.0
 40
20.0
 40
20.0
 40
21.0
 40
21.0
 40
21.0
 40
22.0
 40
22.0
 40
22.0
 40
23.0
 40
23.0
 40
23.0
 40
24.0
 40
24.0
 40
24.0
 40
25.0
 40
25.0
 40
25.0
 40
26.0
 40
26.0
 40
26.0
 40
27.0
 40
27.0
 40
27.0
 40
28.0
 40
28.0
 40
28.0
 40
28.0
 10
280.6228882490717
 20
-279.1002421719784
 10
280.6194776045413
 20
-279.0834817824427
 10
280.6152401370944
 20
-279.0686334209012
 10
280.6101069448214
 20
-279.055731538309
 10
280.6079020837108
 20
-279.050116032668
 10
280.6050082035032
 20
-279.0431569397878
 10
280.6013908532437
 20
-279.0348714851458
 10
280.5977735029842
 20
-279.0265688050263
 10
280.5948796227766
 20
-279.019644163101
 10
280.5926403107112
 20
-279.0140631084149
 10
280.5904354496006
 20
-279.0084476027739
 10
280.589195215226
 20
-279.0053642423146
 10
280.588954058542
 20
-279.0047958015596
 10
280.6024243818893
 20
-279.0059499085471
 10
280.6173416453404
 20
-279.0036244690946
 10
280.6338092017599
 20
-278.9977333558148
 10
280.6472795251073
 20
-278.9924106832901
 10
280.658786144028
 20
-278.9833500821638
 10
280.6682601566124
 20
-278.9705171014813
 10
280.6777686201517
 20
-278.9577013462762
 10
280.6795256188492
 20
-278.9437142586061
 10
280.6735311527049
 20
-278.9285386129935
 10
280.6679845489736
 20
-278.9145515253234
 10
280.6606120446352
 20
-278.9050086108293
 10
280.6514825415993
 20
-278.8998409676014
 10
280.6423530385633
 20
-278.8947250008058
 10
280.6323622616561
 20
-278.8920550518047
 10
280.6215446618324
 20
-278.8917966696433
 10
280.6107270620088
 20
-278.8915210620045
 10
280.5996338545463
 20
-278.8928646492438
 10
280.5881272356255
 20
-278.8957757549288
 10
280.5766206167048
 20
-278.8987213115687
 10
280.5655274092423
 20
-278.9013051331826
 10
280.5547787113283
 20
-278.9036133471578
 10
280.5547787113283
 20
-278.9036133471578
 10
280.5198454431078
 20
-278.8153672263031
 10
280.5198454431078
 20
-278.8153672263031
 10
280.5259088111619
 20
-278.8142992467027
 10
280.5297673181054
 20
-278.8133862963991
 10
280.5314554148932
 20
-278.8127145027794
 10
280.5325922964033
 20
-278.8122838658438
 10
280.5334191193198
 20
-278.8119393562953
 10
280.5339703345974
 20
-278.8117326505662
 10
280.534521549875
 20
-278.8115087193596
 10
280.5355550785206
 20
-278.8112675626757
 10
280.5370709205341
 20
-278.8109747295594
 10
280.5385867625477
 20
-278.810716347398
 10
280.5423763675814
 20
-278.8100101028235
 10
280.5484397356354
 20
-278.8089421232231
 10
280.5737267364972
 20
-278.8041017640663
 10
280.5991170902234
 20
-278.799399208729
 10
280.6245074439498
 20
-278.7948516826884
 10
280.6499322486309
 20
-278.7903213821253
 10
280.6738756622534
 20
-278.7894256572991
 10
280.6963376848172
 20
-278.7921989591648
 10
280.7188341583359
 20
-278.7949894865078
 10
280.7394702802926
 20
-278.8028443042142
 10
280.7582115997323
 20
-278.8158150887162
 10
280.7769873701269
 20
-278.828820324173
 10
280.7922835940814
 20
-278.8504555238204
 10
280.8043069773249
 20
-278.8807206876583
 10
280.8131608727221
 20
-278.903096582835
 10
280.8170193796655
 20
-278.9247662334372
 10
280.8158824981554
 20
-278.9456435120778
 10
280.8147456166453
 20
-278.966503565241
 10
280.8096468753271
 20
-278.9860028056875
 10
280.8006207251557
 20
-279.0041412334173
 10
280.7916634768941
 20
-279.0222968866246
 10
280.7789510745535
 20
-279.0385060608827
 10
280.7625524200437
 20
-279.0527687561917
 10
280.7461537655339
 20
-279.0670142260232
 10
280.7273090932296
 20
-279.0783830411245
 10
280.7060184031308
 20
-279.0868235250633
 10
280.6953730580814
 20
-279.0910093160779
 10
280.6873115346459
 20
-279.094368284176
 10
280.6818338328243
 20
-279.0968832038803
 10
280.6763216800479
 20
-279.0993292216748
 10
280.6710162330006
 20
-279.101155122282
 10
280.6659174916825
 20
-279.1021714254501
 10
280.6608532013191
 20
-279.1032394050505
 10
280.6552376956782
 20
-279.1034805617345
 10
280.649208778579
 20
-279.1029810228891
 10
280.6431798614798
 20
-279.1024125821341
 10
280.6343948679924
 20
-279.1015513082628
 10
280.6228882490717
 20
-279.1002421719784
 97
        0
 92
        1
 93
        1
 72
     4
 94
        3
 73
     0
 74
     1
 95
       74
 96
       70
 40
0.0
 40
0.0
 40
0.0
 40
0.0
 40
1.0
 40
1.0
 40
1.0
 40
2.0
 40
2.0
 40
2.0
 40
3.0
 40
3.0
 40
3.0
 40
4.0
 40
4.0
 40
4.0
 40
5.0
 40
5.0
 40
5.0
 40
6.0
 40
6.0
 40
6.0
 40
7.0
 40
7.0
 40
7.0
 40
8.0
 40
8.0
 40
8.0
 40
9.0
 40
9.0
 40
9.0
 40
10.0
 40
10.0
 40
10.0
 40
11.0
 40
11.0
 40
11.0
 40
12.0
 40
12.0
 40
12.0
 40
13.0
 40
13.0
 40
13.0
 40
14.0
 40
14.0
 40
14.0
 40
15.0
 40
15.0
 40
15.0
 40
16.0
 40
16.0
 40
16.0
 40
17.0
 40
17.0
 40
17.0
 40
18.0
 40
18.0
 40
18.0
 40
19.0
 40
19.0
 40
19.0
 40
20.0
 40
20.0
 40
20.0
 40
21.0
 40
21.0
 40
21.0
 40
22.0
 40
22.0
 40
22.0
 40
23.0
 40
23.0
 40
23.0
 40
23.0
 10
280.4260010420896
 20
-279.180082259849
 10
280.4243473962567
 20
-279.156156071704
 10
280.4201443797647
 20
-279.1328500007463
 10
280.4134608945233
 20
-279.110250174363
 10
280.406777409282
 20
-279.0875986715475
 10
280.3991292973047
 20
-279.0653433547128
 10
280.3904476566819
 20
-279.0435186748138
 10
280.382248329427
 20
-279.0227791999926
 10
280.3737044926236
 20
-279.002470362107
 10
280.3648850481813
 20
-278.9826610630668
 10
280.3560656037391
 20
-278.9628000875944
 10
280.3476940217099
 20
-278.9428013083025
 10
280.3397014001841
 20
-278.9226302742363
 10
280.325266450101
 20
-278.8862328404347
 10
280.3161024961102
 20
-278.8535388842797
 10
280.3121061853473
 20
-278.8246517586358
 10
280.3081098745844
 20
-278.7958163094243
 10
280.3105214414241
 20
-278.7698747404203
 10
280.3192719839566
 20
-278.7469648554434
 10
280.328056977444
 20
-278.7240377449891
 10
280.3435943580825
 20
-278.7035222013744
 10
280.3658496749172
 20
-278.68528042078
 10
280.3881394427067
 20
-278.6671075420954
 10
280.4180428715187
 20
-278.6505538582887
 10
280.4555599613531
 20
-278.6357399477022
 10
280.4555599613531
 20
-278.6357399477022
 10
280.4552154518046
 20
-278.6348786738308
 10
280.4552154518046
 20
-278.6348786738308
 10
280.4748524960705
 20
-278.627127208989
 10
280.4957297747111
 20
-278.6212533211867
 10
280.5178128367716
 20
-278.6174120397206
 10
280.5399648007417
 20
-278.6134846308674
 10
280.5616689022988
 20
-278.6128300627253
 10
280.5830973962171
 20
-278.6153794333843
 10
280.6045258901353
 20
-278.617911578566
 10
280.6245418949046
 20
-278.6242505542588
 10
280.6431454105249
 20
-278.6343619095081
 10
280.6617144751905
 20
-278.6445077157121
 10
280.6776308163323
 20
-278.6596144594149
 10
280.6907566301311
 20
-278.6796993660939
 10
280.6943050784809
 20
-278.6854182245995
 10
280.6975779191919
 20
-278.691257661447
 10
280.7005751522641
 20
-278.6971832256816
 10
280.7035723853363
 20
-278.7031604663485
 10
280.7068452260472
 20
-278.7089654522412
 10
280.7104281253519
 20
-278.7146843107466
 10
280.7104281253519
 20
-278.7146843107466
 10
280.591055566788
 20
-278.7619165698494
 10
280.591055566788
 20
-278.7619165698494
 10
280.5827528866685
 20
-278.7425206822675
 10
280.5694548180954
 20
-278.7310829652565
 10
280.5512647139333
 20
-278.7276034188163
 10
280.5330057078615
 20
-278.7241238723763
 10
280.5149534075188
 20
-278.7259497729834
 10
280.4969700090858
 20
-278.7330294442056
 10
280.4757137699418
 20
-278.7414527026671
 10
280.4601419383485
 20
-278.7524770082198
 10
280.4503234162155
 20
-278.766102360864
 10
280.4404704431277
 20
-278.7797104880307
 10
280.4401948354889
 20
-278.7982795526962
 10
280.449496593299
 20
-278.8218095548605
 10
280.449496593299
 20
-278.8218095548605
 10
280.5423074656717
 20
-279.056299979064
 10
280.5423074656717
 20
-279.056299979064
 10
280.5518503801658
 20
-279.0803984219834
 10
280.5579137482199
 20
-279.1039628751025
 10
280.5604975698338
 20
-279.1268899855568
 10
280.5604975698338
 20
-279.1268899855568
 10
280.4260010420896
 20
-279.180082259849
 10
280.4260010420896
 20
-279.180082259849
 97
        0
 75
     2
 76
     1
 98
        0
  0
ENDBLK
  5
42
330
3F
100
AcDbEntity
  8
0
100
AcDbBlockEnd
  0
BLOCK
  5
5C
330
5A
100
AcDbEntity
  8
0
100
AcDbBlockBegin
  2
block 3
 70
     0
 71
     0
 10
0.0
 20
0.0
 30
0.0
  3
block 3
  1

  0
SPLINE
  5
5E
330
5A
100
AcDbEntity
  8
Layer 1
370
     0
100
AcDbSpline
210
0.0
220
0.0
230
1.0
 70
    11
 71
     3
 72
    17
 73
    13
 74
     0
 42
0.0000000001
 43
0.0000000001
 40
0.0
 40
0.0
 40
0.0
 40
0.0
 40
1.0
 40
1.0
 40
1.0
 40
2.0
 40
2.0
 40
2.0
 40
3.0
 40
3.0
 40
3.0
 40
4.0
 40
4.0
 40
4.0
 40
4.0
 10
284.1626894092111
 20
-281.5503768556106
 30
0.0
 10
284.1598644309132
 20
-281.585103418102
 30
0.0
 10
284.1327859803991
 20
-281.6046715604582
 30
0.0
 10
284.0989551427339
 20
-281.6019499350248
 30
0.0
 10
284.0641941292877
 20
-281.5991594076818
 30
0.0
 10
284.0415943029045
 20
-281.5746303278268
 30
0.0
 10
284.0442470264281
 20
-281.5417296659427
 30
0.0
 10
284.0468652989969
 20
-281.5088634550134
 30
0.0
 10
284.073254730414
 20
-281.4873316082306
 30
0.0
 10
284.1080157438601
 20
-281.4901565865285
 30
0.0
 10
284.1418121305704
 20
-281.4929126629167
 30
0.0
 10
284.1653765836895
 20
-281.5174761937265
 30
0.0
 10
284.1626894092111
 20
-281.5503768556106
 30
0.0
  0
HATCH
  5
5F
330
5A
100
AcDbEntity
  8
Layer 1
 62
     7
420
 15724268
100
AcDbHatch
 10
0.0
 20
0.0
 30
0.0
210
0.0
220
0.0
230
1.0
  2
SOLID
 70
     1
 71
     0
 91
        1
 92
        1
 93
        1
 72
     4
 94
        3
 73
     0
 74
     1
 95
       17
 96
       13
 40
0.0
 40
0.0
 40
0.0
 40
0.0
 40
1.0
 40
1.0
 40
1.0
 40
2.0
 40
2.0
 40
2.0
 40
3.0
 40
3.0
 40
3.0
 40
4.0
 40
4.0
 40
4.0
 40
4.0
 10
284.1626894092111
 20
-281.5503768556106
 10
284.1598644309132
 20
-281.585103418102
 10
284.1327859803991
 20
-281.6046715604582
 10
284.0989551427339
 20
-281.6019499350248
 10
284.0641941292877
 20
-281.5991594076818
 10
284.0415943029045
 20
-281.5746303278268
 10
284.0442470264281
 20
-281.5417296659427
 10
284.0468652989969
 20
-281.5088634550134
 10
284.073254730414
 20
-281.4873316082306
 10
284.1080157438601
 20
-281.4901565865285
 10
284.1418121305704
 20
-281.4929126629167
 10
284.1653765836895
 20
-281.5174761937265
 10
284.1626894092111
 20
-281.5503768556106
 97
        0
 75
     2
 76
     1
 98
        0
  0
POLYLINE
  5
60
330
5A
100
AcDbEntity
  8
Layer 1
370
     0
100
AcDb2dPolyline
 66
     1
 10
0.0
 20
0.0
 30
0.0
  0
VERTEX
  5
61
330
60
100
AcDbEntity
  8
Layer 1
370
     0
100
AcDbVertex
100
AcDb2dVertex
 10
283.1103849932415
 20
-283.4823519527839
 30
0.0
  0
VERTEX
  5
62
330
60
100
AcDbEntity
  8
Layer 1
370
     0
100
AcDbVertex
100
AcDb2dVertex
 10
282.7298052949859
 20
-282.8967201712463
 30
0.0
  0
VERTEX
  5
63
330
60
100
AcDbEntity
  8
Layer 1
370
     0
100
AcDbVertex
100
AcDb2dVertex
 10
282.8527952038094
 20
-282.8167939559885
 30
0.0
  0
VERTEX
  5
64
330
60
100
AcDbEntity
  8
Layer 1
370
     0
100
AcDbVertex
100
AcDb2dVertex
 10
283.2333749020649
 20
-283.402460188481
 30
0.0
  0
VERTEX
  5
65
330
60
100
AcDbEntity
  8
Layer 1
370
     0
100
AcDbVertex
100
AcDb2dVertex
 10
283.1103849932415
 20
-283.4823519527839
 30
0.0
  0
SEQEND
  5
66
330
60
100
AcDbEntity
  8
Layer 1
370
     0
  0
SPLINE
  5
67
330
5A
100
AcDbEntity
  8
Layer 1
370
     0
100
AcDbSpline
210
0.0
220
0.0
230
1.0
 70
    11
 71
     3
 72
    62
 73
    58
 74
     0
 42
0.0000000001
 43
0.0000000001
 40
0.0
 40
0.0
 40
0.0
 40
0.0
 40
1.0
 40
1.0
 40
1.0
 40
2.0
 40
2.0
 40
2.0
 40
3.0
 40
3.0
 40
3.0
 40
4.0
 40
4.0
 40
4.0
 40
5.0
 40
5.0
 40
5.0
 40
6.0
 40
6.0
 40
6.0
 40
7.0
 40
7.0
 40
7.0
 40
8.0
 40
8.0
 40
8.0
 40
9.0
 40
9.0
 40
9.0
 40
10.0
 40
10.0
 40
10.0
 40
11.0
 40
11.0
 40
11.0
 40
12.0
 40
12.0
 40
12.0
 40
13.0
 40
13.0
 40
13.0
 40
14.0
 40
14.0
 40
14.0
 40
15.0
 40
15.0
 40
15.0
 40
16.0
 40
16.0
 40
16.0
 40
17.0
 40
17.0
 40
17.0
 40
18.0
 40
18.0
 40
18.0
 40
19.0
 40
19.0
 40
19.0
 40
19.0
 10
282.6057474065621
 20
-283.3521617943963
 30
0.0
 10
282.6057474065621
 20
-283.3521617943963
 30
0.0
 10
282.4344917099903
 20
-283.0886464407296
 30
0.0
 10
282.4344917099903
 20
-283.0886464407296
 30
0.0
 10
282.4344917099903
 20
-283.0886464407296
 30
0.0
 10
282.4445513888073
 20
-283.0821352102624
 30
0.0
 10
282.4445513888073
 20
-283.0821352102624
 30
0.0
 10
282.5126609265506
 20
-283.1441813799518
 30
0.0
 10
282.5804259547455
 20
-283.2054351776795
 30
0.0
 10
282.6478809243467
 20
-283.2658966034456
 30
0.0
 10
282.7153358939479
 20
-283.3263924801666
 30
0.0
 10
282.780930511987
 20
-283.389851139005
 30
0.0
 10
282.8447336803738
 20
-283.4562725799606
 30
0.0
 10
282.8116263127606
 20
-283.3699384871002
 30
0.0
 10
282.7812750215356
 20
-283.2835354923301
 30
0.0
 10
282.7537142576535
 20
-283.1971324975601
 30
0.0
 10
282.7261190428167
 20
-283.11072950279
 30
0.0
 10
282.6980759655668
 20
-283.0236719398777
 30
0.0
 10
282.6695850259038
 20
-282.9358909069136
 30
0.0
 10
282.6695850259038
 20
-282.9358909069136
 30
0.0
 10
282.6754416882287
 20
-282.932066850925
 30
0.0
 10
282.6754416882287
 20
-282.932066850925
 30
0.0
 10
282.6754416882287
 20
-282.932066850925
 30
0.0
 10
282.8499702255115
 20
-283.200646494955
 30
0.0
 10
282.8499702255115
 20
-283.200646494955
 30
0.0
 10
282.8514171656153
 20
-283.2028513560656
 30
0.0
 10
282.8533808700419
 20
-283.2077433916546
 30
0.0
 10
282.8558957897461
 20
-283.2152536998125
 30
0.0
 10
282.8583762584955
 20
-283.2226951060606
 30
0.0
 10
282.8607878253351
 20
-283.2306877275864
 30
0.0
 10
282.8630615883554
 20
-283.2390937605704
 30
0.0
 10
282.8654042532854
 20
-283.2474997935544
 30
0.0
 10
282.8677124672605
 20
-283.2557335717642
 30
0.0
 10
282.8701240341002
 20
-283.2636917423351
 30
0.0
 10
282.8725356009398
 20
-283.2716154619512
 30
0.0
 10
282.8744993053664
 20
-283.2774721242761
 30
0.0
 10
282.8761529511993
 20
-283.2811928274002
 30
0.0
 10
282.8761529511993
 20
-283.2811928274002
 30
0.0
 10
283.001657779727
 20
-283.5530108611864
 30
0.0
 10
283.001657779727
 20
-283.5530108611864
 30
0.0
 10
283.001657779727
 20
-283.5530108611864
 30
0.0
 10
282.8694350150031
 20
-283.6389659935434
 30
0.0
 10
282.8694350150031
 20
-283.6389659935434
 30
0.0
 10
282.8694350150031
 20
-283.6389659935434
 30
0.0
 10
282.6687582029873
 20
-283.4088336151287
 30
0.0
 10
282.6687582029873
 20
-283.4088336151287
 30
0.0
 10
282.6660021265991
 20
-283.4058363820565
 30
0.0
 10
282.6615235024683
 20
-283.4016333655645
 30
0.0
 10
282.6551845267754
 20
-283.3961901146978
 30
0.0
 10
282.6488455510826
 20
-283.390781314786
 30
0.0
 10
282.6423687715703
 20
-283.3853036129644
 30
0.0
 10
282.6356163844192
 20
-283.379791460188
 30
0.0
 10
282.6288639972681
 20
-283.3742793074116
 30
0.0
 10
282.6225250215753
 20
-283.3688705074998
 30
0.0
 10
282.6166683592504
 20
-283.3635306094976
 30
0.0
 10
282.6108461478802
 20
-283.3582251624504
 30
0.0
 10
282.6072287976207
 20
-283.3544355574166
 30
0.0
 10
282.6057474065621
 20
-283.3521617943963
 30
0.0
  0
POLYLINE
  5
68
330
5A
100
AcDbEntity
  8
Layer 1
370
     0
100
AcDb2dPolyline
 66
     1
 10
0.0
 20
0.0
 30
0.0
  0
VERTEX
  5
69
330
68
100
AcDbEntity
  8
Layer 1
370
     0
100
AcDbVertex
100
AcDb2dVertex
 10
282.6376834417104
 20
-283.7895511172036
 30
0.0
  0
VERTEX
  5
6A
330
68
100
AcDbEntity
  8
Layer 1
370
     0
100
AcDbVertex
100
AcDb2dVertex
 10
282.2571381944097
 20
-283.203919335666
 30
0.0
  0
VERTEX
  5
6B
330
68
100
AcDbEntity
  8
Layer 1
370
     0
100
AcDbVertex
100
AcDb2dVertex
 10
282.3793012803166
 20
-283.1245443356859
 30
0.0
  0
VERTEX
  5
6C
330
68
100
AcDbEntity
  8
Layer 1
370
     0
100
AcDbVertex
100
AcDb2dVertex
 10
282.7598465276173
 20
-283.7101761172235
 30
0.0
  0
VERTEX
  5
6D
330
68
100
AcDbEntity
  8
Layer 1
370
     0
100
AcDbVertex
100
AcDb2dVertex
 10
282.6376834417104
 20
-283.7895511172036
 30
0.0
  0
SEQEND
  5
6E
330
68
100
AcDbEntity
  8
Layer 1
370
     0
  0
HATCH
  5
6F
330
5A
100
AcDbEntity
  8
Layer 1
 62
     7
420
 15724268
100
AcDbHatch
 10
0.0
 20
0.0
 30
0.0
210
0.0
220
0.0
230
1.0
  2
SOLID
 70
     1
 71
     0
 91
        3
 92
        1
 93
        4
 72
     1
 10
283.1103849932415
 20
-283.4823519527839
 11
282.7298052949859
 21
-282.8967201712463
 72
     1
 10
282.7298052949859
 20
-282.8967201712463
 11
282.8527952038094
 21
-282.8167939559885
 72
     1
 10
282.8527952038094
 20
-282.8167939559885
 11
283.2333749020649
 21
-283.402460188481
 72
     1
 10
283.2333749020649
 20
-283.402460188481
 11
283.1103849932415
 21
-283.4823519527839
 97
        0
 92
        1
 93
        1
 72
     4
 94
        3
 73
     0
 74
     1
 95
       62
 96
       58
 40
0.0
 40
0.0
 40
0.0
 40
0.0
 40
1.0
 40
1.0
 40
1.0
 40
2.0
 40
2.0
 40
2.0
 40
3.0
 40
3.0
 40
3.0
 40
4.0
 40
4.0
 40
4.0
 40
5.0
 40
5.0
 40
5.0
 40
6.0
 40
6.0
 40
6.0
 40
7.0
 40
7.0
 40
7.0
 40
8.0
 40
8.0
 40
8.0
 40
9.0
 40
9.0
 40
9.0
 40
10.0
 40
10.0
 40
10.0
 40
11.0
 40
11.0
 40
11.0
 40
12.0
 40
12.0
 40
12.0
 40
13.0
 40
13.0
 40
13.0
 40
14.0
 40
14.0
 40
14.0
 40
15.0
 40
15.0
 40
15.0
 40
16.0
 40
16.0
 40
16.0
 40
17.0
 40
17.0
 40
17.0
 40
18.0
 40
18.0
 40
18.0
 40
19.0
 40
19.0
 40
19.0
 40
19.0
 10
282.6057474065621
 20
-283.3521617943963
 10
282.6057474065621
 20
-283.3521617943963
 10
282.4344917099903
 20
-283.0886464407296
 10
282.4344917099903
 20
-283.0886464407296
 10
282.4344917099903
 20
-283.0886464407296
 10
282.4445513888073
 20
-283.0821352102624
 10
282.4445513888073
 20
-283.0821352102624
 10
282.5126609265506
 20
-283.1441813799518
 10
282.5804259547455
 20
-283.2054351776795
 10
282.6478809243467
 20
-283.2658966034456
 10
282.7153358939479
 20
-283.3263924801666
 10
282.780930511987
 20
-283.389851139005
 10
282.8447336803738
 20
-283.4562725799606
 10
282.8116263127606
 20
-283.3699384871002
 10
282.7812750215356
 20
-283.2835354923301
 10
282.7537142576535
 20
-283.1971324975601
 10
282.7261190428167
 20
-283.11072950279
 10
282.6980759655668
 20
-283.0236719398777
 10
282.6695850259038
 20
-282.9358909069136
 10
282.6695850259038
 20
-282.9358909069136
 10
282.6754416882287
 20
-282.932066850925
 10
282.6754416882287
 20
-282.932066850925
 10
282.6754416882287
 20
-282.932066850925
 10
282.8499702255115
 20
-283.200646494955
 10
282.8499702255115
 20
-283.200646494955
 10
282.8514171656153
 20
-283.2028513560656
 10
282.8533808700419
 20
-283.2077433916546
 10
282.8558957897461
 20
-283.2152536998125
 10
282.8583762584955
 20
-283.2226951060606
 10
282.8607878253351
 20
-283.2306877275864
 10
282.8630615883554
 20
-283.2390937605704
 10
282.8654042532854
 20
-283.2474997935544
 10
282.8677124672605
 20
-283.2557335717642
 10
282.8701240341002
 20
-283.2636917423351
 10
282.8725356009398
 20
-283.2716154619512
 10
282.8744993053664
 20
-283.2774721242761
 10
282.8761529511993
 20
-283.2811928274002
 10
282.8761529511993
 20
-283.2811928274002
 10
283.001657779727
 20
-283.5530108611864
 10
283.001657779727
 20
-283.5530108611864
 10
283.001657779727
 20
-283.5530108611864
 10
282.8694350150031
 20
-283.6389659935434
 10
282.8694350150031
 20
-283.6389659935434
 10
282.8694350150031
 20
-283.6389659935434
 10
282.6687582029873
 20
-283.4088336151287
 10
282.6687582029873
 20
-283.4088336151287
 10
282.6660021265991
 20
-283.4058363820565
 10
282.6615235024683
 20
-283.4016333655645
 10
282.6551845267754
 20
-283.3961901146978
 10
282.6488455510826
 20
-283.390781314786
 10
282.6423687715703
 20
-283.3853036129644
 10
282.6356163844192
 20
-283.379791460188
 10
282.6288639972681
 20
-283.3742793074116
 10
282.6225250215753
 20
-283.3688705074998
 10
282.6166683592504
 20
-283.3635306094976
 10
282.6108461478802
 20
-283.3582251624504
 10
282.6072287976207
 20
-283.3544355574166
 10
282.6057474065621
 20
-283.3521617943963
 97
        0
 92
        1
 93
        4
 72
     1
 10
282.6376834417104
 20
-283.7895511172036
 11
282.2571381944097
 21
-283.203919335666
 72
     1
 10
282.2571381944097
 20
-283.203919335666
 11
282.3793012803166
 21
-283.1245443356859
 72
     1
 10
282.3793012803166
 20
-283.1245443356859
 11
282.7598465276173
 21
-283.7101761172235
 72
     1
 10
282.7598465276173
 20
-283.7101761172235
 11
282.6376834417104
 21
-283.7895511172036
 97
        0
 75
     2
 76
     1
 98
        0
  0
SPLINE
  5
70
330
5A
100
AcDbEntity
  8
Layer 1
370
     0
100
AcDbSpline
210
0.0
220
0.0
230
1.0
 70
    11
 71
     3
 72
    47
 73
    43
 74
     0
 42
0.0000000001
 43
0.0000000001
 40
0.0
 40
0.0
 40
0.0
 40
0.0
 40
1.0
 40
1.0
 40
1.0
 40
2.0
 40
2.0
 40
2.0
 40
3.0
 40
3.0
 40
3.0
 40
4.0
 40
4.0
 40
4.0
 40
5.0
 40
5.0
 40
5.0
 40
6.0
 40
6.0
 40
6.0
 40
7.0
 40
7.0
 40
7.0
 40
8.0
 40
8.0
 40
8.0
 40
9.0
 40
9.0
 40
9.0
 40
10.0
 40
10.0
 40
10.0
 40
11.0
 40
11.0
 40
11.0
 40
12.0
 40
12.0
 40
12.0
 40
13.0
 40
13.0
 40
13.0
 40
14.0
 40
14.0
 40
14.0
 40
14.0
 10
281.7683824979173
 20
-284.0409741857172
 30
0.0
 10
281.7683824979173
 20
-284.0409741857172
 30
0.0
 10
281.842727658489
 20
-283.3044127709708
 30
0.0
 10
281.842727658489
 20
-283.3044127709708
 30
0.0
 10
281.842727658489
 20
-283.3044127709708
 30
0.0
 10
282.0172906467266
 20
-283.2621759003216
 30
0.0
 10
282.0172906467266
 20
-283.2621759003216
 30
0.0
 10
282.0172906467266
 20
-283.2621759003216
 30
0.0
 10
282.4152336262277
 20
-283.8844979487771
 30
0.0
 10
282.4152336262277
 20
-283.8844979487771
 30
0.0
 10
282.4152336262277
 20
-283.8844979487771
 30
0.0
 10
282.2425998914619
 20
-283.9262525060583
 30
0.0
 10
282.2425998914619
 20
-283.9262525060583
 30
0.0
 10
282.2425998914619
 20
-283.9262525060583
 30
0.0
 10
282.0106760633949
 20
-283.5235208438326
 30
0.0
 10
282.0106760633949
 20
-283.5235208438326
 30
0.0
 10
282.0016154622687
 20
-283.5086380313364
 30
0.0
 10
281.9935539388332
 20
-283.4936174150207
 30
0.0
 10
281.9864914930884
 20
-283.4785278967953
 30
0.0
 10
281.9794290473437
 20
-283.4635072804796
 30
0.0
 10
281.9722976996892
 20
-283.4482799584348
 30
0.0
 10
281.9651319010799
 20
-283.4328803816157
 30
0.0
 10
281.9709541124499
 20
-283.4794236216214
 30
0.0
 10
281.9717464844115
 20
-283.5257257049432
 30
0.0
 10
281.9675090169647
 20
-283.5719244354004
 30
0.0
 10
281.9632715495179
 20
-283.6181231658576
 30
0.0
 10
281.9599298068972
 20
-283.6644597001342
 30
0.0
 10
281.9574837891026
 20
-283.7108651363205
 30
0.0
 10
281.9574837891026
 20
-283.7108651363205
 30
0.0
 10
282.0333447916878
 20
-283.6935707569846
 30
0.0
 10
282.0333447916878
 20
-283.6935707569846
 30
0.0
 10
282.0333447916878
 20
-283.6935707569846
 30
0.0
 10
282.0997662326434
 20
-283.8068110455847
 30
0.0
 10
282.0997662326434
 20
-283.8068110455847
 30
0.0
 10
282.0997662326434
 20
-283.8068110455847
 30
0.0
 10
281.948526540841
 20
-283.8434324105929
 30
0.0
 10
281.948526540841
 20
-283.8434324105929
 30
0.0
 10
281.948526540841
 20
-283.8434324105929
 30
0.0
 10
281.9390869792114
 20
-283.999667490849
 30
0.0
 10
281.9390869792114
 20
-283.999667490849
 30
0.0
 10
281.9390869792114
 20
-283.999667490849
 30
0.0
 10
281.7683824979173
 20
-284.0409741857172
 30
0.0
 10
281.7683824979173
 20
-284.0409741857172
 30
0.0
  0
HATCH
  5
71
330
5A
100
AcDbEntity
  8
Layer 1
 62
     7
420
 15724268
100
AcDbHatch
 10
0.0
 20
0.0
 30
0.0
210
0.0
220
0.0
230
1.0
  2
SOLID
 70
     1
 71
     0
 91
        1
 92
        1
 93
        1
 72
     4
 94
        3
 73
     0
 74
     1
 95
       47
 96
       43
 40
0.0
 40
0.0
 40
0.0
 40
0.0
 40
1.0
 40
1.0
 40
1.0
 40
2.0
 40
2.0
 40
2.0
 40
3.0
 40
3.0
 40
3.0
 40
4.0
 40
4.0
 40
4.0
 40
5.0
 40
5.0
 40
5.0
 40
6.0
 40
6.0
 40
6.0
 40
7.0
 40
7.0
 40
7.0
 40
8.0
 40
8.0
 40
8.0
 40
9.0
 40
9.0
 40
9.0
 40
10.0
 40
10.0
 40
10.0
 40
11.0
 40
11.0
 40
11.0
 40
12.0
 40
12.0
 40
12.0
 40
13.0
 40
13.0
 40
13.0
 40
14.0
 40
14.0
 40
14.0
 40
14.0
 10
281.7683824979173
 20
-284.0409741857172
 10
281.7683824979173
 20
-284.0409741857172
 10
281.842727658489
 20
-283.3044127709708
 10
281.842727658489
 20
-283.3044127709708
 10
281.842727658489
 20
-283.3044127709708
 10
282.0172906467266
 20
-283.2621759003216
 10
282.0172906467266
 20
-283.2621759003216
 10
282.0172906467266
 20
-283.2621759003216
 10
282.4152336262277
 20
-283.8844979487771
 10
282.4152336262277
 20
-283.8844979487771
 10
282.4152336262277
 20
-283.8844979487771
 10
282.2425998914619
 20
-283.9262525060583
 10
282.2425998914619
 20
-283.9262525060583
 10
282.2425998914619
 20
-283.9262525060583
 10
282.0106760633949
 20
-283.5235208438326
 10
282.0106760633949
 20
-283.5235208438326
 10
282.0016154622687
 20
-283.5086380313364
 10
281.9935539388332
 20
-283.4936174150207
 10
281.9864914930884
 20
-283.4785278967953
 10
281.9794290473437
 20
-283.4635072804796
 10
281.9722976996892
 20
-283.4482799584348
 10
281.9651319010799
 20
-283.4328803816157
 10
281.9709541124499
 20
-283.4794236216214
 10
281.9717464844115
 20
-283.5257257049432
 10
281.9675090169647
 20
-283.5719244354004
 10
281.9632715495179
 20
-283.6181231658576
 10
281.9599298068972
 20
-283.6644597001342
 10
281.9574837891026
 20
-283.7108651363205
 10
281.9574837891026
 20
-283.7108651363205
 10
282.0333447916878
 20
-283.6935707569846
 10
282.0333447916878
 20
-283.6935707569846
 10
282.0333447916878
 20
-283.6935707569846
 10
282.0997662326434
 20
-283.8068110455847
 10
282.0997662326434
 20
-283.8068110455847
 10
282.0997662326434
 20
-283.8068110455847
 10
281.948526540841
 20
-283.8434324105929
 10
281.948526540841
 20
-283.8434324105929
 10
281.948526540841
 20
-283.8434324105929
 10
281.9390869792114
 20
-283.999667490849
 10
281.9390869792114
 20
-283.999667490849
 10
281.9390869792114
 20
-283.999667490849
 10
281.7683824979173
 20
-284.0409741857172
 10
281.7683824979173
 20
-284.0409741857172
 97
        0
 75
     2
 76
     1
 98
        0
  0
POLYLINE
  5
72
330
5A
100
AcDbEntity
  8
Layer 1
370
     0
100
AcDb2dPolyline
 66
     1
 10
0.0
 20
0.0
 30
0.0
  0
VERTEX
  5
73
330
72
100
AcDbEntity
  8
Layer 1
370
     0
100
AcDbVertex
100
AcDb2dVertex
 10
281.3809126086912
 20
-284.0458662213062
 30
0.0
  0
VERTEX
  5
74
330
72
100
AcDbEntity
  8
Layer 1
370
     0
100
AcDbVertex
100
AcDb2dVertex
 10
281.4398926433987
 20
-283.3498880313761
 30
0.0
  0
VERTEX
  5
75
330
72
100
AcDbEntity
  8
Layer 1
370
     0
100
AcDbVertex
100
AcDb2dVertex
 10
281.5959554688805
 20
-283.3631171980394
 30
0.0
  0
VERTEX
  5
76
330
72
100
AcDbEntity
  8
Layer 1
370
     0
100
AcDbVertex
100
AcDb2dVertex
 10
281.5370098851279
 20
-284.0590609370147
 30
0.0
  0
VERTEX
  5
77
330
72
100
AcDbEntity
  8
Layer 1
370
     0
100
AcDbVertex
100
AcDb2dVertex
 10
281.3809126086912
 20
-284.0458662213062
 30
0.0
  0
SEQEND
  5
78
330
72
100
AcDbEntity
  8
Layer 1
370
     0
  0
POLYLINE
  5
79
330
5A
100
AcDbEntity
  8
Layer 1
370
     0
100
AcDb2dPolyline
 66
     1
 10
0.0
 20
0.0
 30
0.0
  0
VERTEX
  5
7A
330
79
100
AcDbEntity
  8
Layer 1
370
     0
100
AcDbVertex
100
AcDb2dVertex
 10
280.9176161678348
 20
-284.0065921327744
 30
0.0
  0
VERTEX
  5
7B
330
79
100
AcDbEntity
  8
Layer 1
370
     0
100
AcDbVertex
100
AcDb2dVertex
 10
281.2331524633288
 20
-283.6508171220126
 30
0.0
  0
VERTEX
  5
7C
330
79
100
AcDbEntity
  8
Layer 1
370
     0
100
AcDbVertex
100
AcDb2dVertex
 10
280.9925814455938
 20
-283.3109929033476
 30
0.0
  0
VERTEX
  5
7D
330
79
100
AcDbEntity
  8
Layer 1
370
     0
100
AcDbVertex
100
AcDb2dVertex
 10
281.1943951391198
 20
-283.3280805769544
 30
0.0
  0
VERTEX
  5
7E
330
79
100
AcDbEntity
  8
Layer 1
370
     0
100
AcDbVertex
100
AcDb2dVertex
 10
281.3443601455927
 20
-283.5791246849646
 30
0.0
  0
VERTEX
  5
7F
330
79
100
AcDbEntity
  8
Layer 1
370
     0
100
AcDbVertex
100
AcDb2dVertex
 10
281.3297184897804
 20
-283.752102929279
 30
0.0
  0
VERTEX
  5
80
330
79
100
AcDbEntity
  8
Layer 1
370
     0
100
AcDbVertex
100
AcDb2dVertex
 10
281.1115061417447
 20
-284.0229907872842
 30
0.0
  0
VERTEX
  5
81
330
79
100
AcDbEntity
  8
Layer 1
370
     0
100
AcDbVertex
100
AcDb2dVertex
 10
280.9176161678348
 20
-284.0065921327744
 30
0.0
  0
SEQEND
  5
82
330
79
100
AcDbEntity
  8
Layer 1
370
     0
  0
HATCH
  5
83
330
5A
100
AcDbEntity
  8
Layer 1
 62
     7
420
 15724268
100
AcDbHatch
 10
0.0
 20
0.0
 30
0.0
210
0.0
220
0.0
230
1.0
  2
SOLID
 70
     1
 71
     0
 91
        2
 92
        1
 93
        4
 72
     1
 10
281.3809126086912
 20
-284.0458662213062
 11
281.4398926433987
 21
-283.3498880313761
 72
     1
 10
281.4398926433987
 20
-283.3498880313761
 11
281.5959554688805
 21
-283.3631171980394
 72
     1
 10
281.5959554688805
 20
-283.3631171980394
 11
281.5370098851279
 21
-284.0590609370147
 72
     1
 10
281.5370098851279
 20
-284.0590609370147
 11
281.3809126086912
 21
-284.0458662213062
 97
        0
 92
        1
 93
        7
 72
     1
 10
280.9176161678348
 20
-284.0065921327744
 11
281.2331524633288
 21
-283.6508171220126
 72
     1
 10
281.2331524633288
 20
-283.6508171220126
 11
280.9925814455938
 21
-283.3109929033476
 72
     1
 10
280.9925814455938
 20
-283.3109929033476
 11
281.1943951391198
 21
-283.3280805769544
 72
     1
 10
281.1943951391198
 20
-283.3280805769544
 11
281.3443601455927
 21
-283.5791246849646
 72
     1
 10
281.3443601455927
 20
-283.5791246849646
 11
281.3297184897804
 21
-283.752102929279
 72
     1
 10
281.3297184897804
 20
-283.752102929279
 11
281.1115061417447
 21
-284.0229907872842
 72
     1
 10
281.1115061417447
 20
-284.0229907872842
 11
280.9176161678348
 21
-284.0065921327744
 97
        0
 75
     2
 76
     1
 98
        0
  0
POLYLINE
  5
84
330
5A
100
AcDbEntity
  8
Layer 1
370
     0
100
AcDb2dPolyline
 66
     1
 10
0.0
 20
0.0
 30
0.0
  0
VERTEX
  5
85
330
84
100
AcDbEntity
  8
Layer 1
370
     0
100
AcDbVertex
100
AcDb2dVertex
 10
280.5715907772963
 20
-283.899242957454
 30
0.0
  0
VERTEX
  5
86
330
84
100
AcDbEntity
  8
Layer 1
370
     0
100
AcDbVertex
100
AcDb2dVertex
 10
280.8241851782748
 20
-283.2470174801865
 30
0.0
  0
VERTEX
  5
87
330
84
100
AcDbEntity
  8
Layer 1
370
     0
100
AcDbVertex
100
AcDb2dVertex
 10
280.9693615020233
 20
-283.3032414385058
 30
0.0
  0
VERTEX
  5
88
330
84
100
AcDbEntity
  8
Layer 1
370
     0
100
AcDbVertex
100
AcDb2dVertex
 10
280.7167671010448
 20
-283.9554669157733
 30
0.0
  0
VERTEX
  5
89
330
84
100
AcDbEntity
  8
Layer 1
370
     0
100
AcDbVertex
100
AcDb2dVertex
 10
280.5715907772963
 20
-283.899242957454
 30
0.0
  0
SEQEND
  5
8A
330
84
100
AcDbEntity
  8
Layer 1
370
     0
  0
POLYLINE
  5
8B
330
5A
100
AcDbEntity
  8
Layer 1
370
     0
100
AcDb2dPolyline
 66
     1
 10
0.0
 20
0.0
 30
0.0
  0
VERTEX
  5
8C
330
8B
100
AcDbEntity
  8
Layer 1
370
     0
100
AcDbVertex
100
AcDb2dVertex
 10
280.4479807512856
 20
-283.2404028968548
 30
0.0
  0
VERTEX
  5
8D
330
8B
100
AcDbEntity
  8
Layer 1
370
     0
100
AcDbVertex
100
AcDb2dVertex
 10
280.494834049885
 20
-283.1194800453225
 30
0.0
  0
VERTEX
  5
8E
330
8B
100
AcDbEntity
  8
Layer 1
370
     0
100
AcDbVertex
100
AcDb2dVertex
 10
280.7525271921816
 20
-283.2193189124851
 30
0.0
  0
VERTEX
  5
8F
330
8B
100
AcDbEntity
  8
Layer 1
370
     0
100
AcDbVertex
100
AcDb2dVertex
 10
280.7057083445371
 20
-283.3402417640173
 30
0.0
  0
VERTEX
  5
90
330
8B
100
AcDbEntity
  8
Layer 1
370
     0
100
AcDbVertex
100
AcDb2dVertex
 10
280.4479807512856
 20
-283.2404028968548
 30
0.0
  0
SEQEND
  5
91
330
8B
100
AcDbEntity
  8
Layer 1
370
     0
  0
POLYLINE
  5
92
330
5A
100
AcDbEntity
  8
Layer 1
370
     0
100
AcDb2dPolyline
 66
     1
 10
0.0
 20
0.0
 30
0.0
  0
VERTEX
  5
93
330
92
100
AcDbEntity
  8
Layer 1
370
     0
100
AcDbVertex
100
AcDb2dVertex
 10
280.3766672747409
 20
-283.4963734914089
 30
0.0
  0
VERTEX
  5
94
330
92
100
AcDbEntity
  8
Layer 1
370
     0
100
AcDbVertex
100
AcDb2dVertex
 10
280.4220736332365
 20
-283.379102441091
 30
0.0
  0
VERTEX
  5
95
330
92
100
AcDbEntity
  8
Layer 1
370
     0
100
AcDbVertex
100
AcDb2dVertex
 10
280.6556511071364
 20
-283.4695706485336
 30
0.0
  0
VERTEX
  5
96
330
92
100
AcDbEntity
  8
Layer 1
370
     0
100
AcDbVertex
100
AcDb2dVertex
 10
280.610210297686
 20
-283.5868072478967
 30
0.0
  0
VERTEX
  5
97
330
92
100
AcDbEntity
  8
Layer 1
370
     0
100
AcDbVertex
100
AcDb2dVertex
 10
280.3766672747409
 20
-283.4963734914089
 30
0.0
  0
SEQEND
  5
98
330
92
100
AcDbEntity
  8
Layer 1
370
     0
  0
POLYLINE
  5
99
330
5A
100
AcDbEntity
  8
Layer 1
370
     0
100
AcDb2dPolyline
 66
     1
 10
0.0
 20
0.0
 30
0.0
  0
VERTEX
  5
9A
330
99
100
AcDbEntity
  8
Layer 1
370
     0
100
AcDbVertex
100
AcDb2dVertex
 10
280.2357284184393
 20
-283.7691561519309
 30
0.0
  0
VERTEX
  5
9B
330
99
100
AcDbEntity
  8
Layer 1
370
     0
100
AcDbVertex
100
AcDb2dVertex
 10
280.2825472660838
 20
-283.6482333003987
 30
0.0
  0
VERTEX
  5
9C
330
99
100
AcDbEntity
  8
Layer 1
370
     0
100
AcDbVertex
100
AcDb2dVertex
 10
280.5467860898025
 20
-283.7505526363106
 30
0.0
  0
VERTEX
  5
9D
330
99
100
AcDbEntity
  8
Layer 1
370
     0
100
AcDbVertex
100
AcDb2dVertex
 10
280.4999327912031
 20
-283.8714754878429
 30
0.0
  0
VERTEX
  5
9E
330
99
100
AcDbEntity
  8
Layer 1
370
     0
100
AcDbVertex
100
AcDb2dVertex
 10
280.2357284184393
 20
-283.7691561519309
 30
0.0
  0
SEQEND
  5
9F
330
99
100
AcDbEntity
  8
Layer 1
370
     0
  0
HATCH
  5
A0
330
5A
100
AcDbEntity
  8
Layer 1
 62
     7
420
 15724268
100
AcDbHatch
 10
0.0
 20
0.0
 30
0.0
210
0.0
220
0.0
230
1.0
  2
SOLID
 70
     1
 71
     0
 91
        4
 92
        1
 93
        4
 72
     1
 10
280.5715907772963
 20
-283.899242957454
 11
280.8241851782748
 21
-283.2470174801865
 72
     1
 10
280.8241851782748
 20
-283.2470174801865
 11
280.9693615020233
 21
-283.3032414385058
 72
     1
 10
280.9693615020233
 20
-283.3032414385058
 11
280.7167671010448
 21
-283.9554669157733
 72
     1
 10
280.7167671010448
 20
-283.9554669157733
 11
280.5715907772963
 21
-283.899242957454
 97
        0
 92
        1
 93
        4
 72
     1
 10
280.4479807512856
 20
-283.2404028968548
 11
280.494834049885
 21
-283.1194800453225
 72
     1
 10
280.494834049885
 20
-283.1194800453225
 11
280.7525271921816
 21
-283.2193189124851
 72
     1
 10
280.7525271921816
 20
-283.2193189124851
 11
280.7057083445371
 21
-283.3402417640173
 72
     1
 10
280.7057083445371
 20
-283.3402417640173
 11
280.4479807512856
 21
-283.2404028968548
 97
        0
 92
        1
 93
        4
 72
     1
 10
280.3766672747409
 20
-283.4963734914089
 11
280.4220736332365
 21
-283.379102441091
 72
     1
 10
280.4220736332365
 20
-283.379102441091
 11
280.6556511071364
 21
-283.4695706485336
 72
     1
 10
280.6556511071364
 20
-283.4695706485336
 11
280.610210297686
 21
-283.5868072478967
 72
     1
 10
280.610210297686
 20
-283.5868072478967
 11
280.3766672747409
 21
-283.4963734914089
 97
        0
 92
        1
 93
        4
 72
     1
 10
280.2357284184393
 20
-283.7691561519309
 11
280.2825472660838
 21
-283.6482333003987
 72
     1
 10
280.2825472660838
 20
-283.6482333003987
 11
280.5467860898025
 21
-283.7505526363106
 72
     1
 10
280.5467860898025
 20
-283.7505526363106
 11
280.4999327912031
 21
-283.8714754878429
 72
     1
 10
280.4999327912031
 20
-283.8714754878429
 11
280.2357284184393
 21
-283.7691561519309
 97
        0
 75
     2
 76
     1
 98
        0
  0
POLYLINE
  5
A1
330
5A
100
AcDbEntity
  8
Layer 1
370
     0
100
AcDb2dPolyline
 66
     1
 10
0.0
 20
0.0
 30
0.0
  0
VERTEX
  5
A2
330
A1
100
AcDbEntity
  8
Layer 1
370
     0
100
AcDbVertex
100
AcDb2dVertex
 10
279.9283914502002
 20
-283.5828453880886
 30
0.0
  0
VERTEX
  5
A3
330
A1
100
AcDbEntity
  8
Layer 1
370
     0
100
AcDbVertex
100
AcDb2dVertex
 10
280.3484174917618
 20
-283.0235685870132
 30
0.0
  0
VERTEX
  5
A4
330
A1
100
AcDbEntity
  8
Layer 1
370
     0
100
AcDbVertex
100
AcDb2dVertex
 10
280.4736811636055
 20
-283.1176541447153
 30
0.0
  0
VERTEX
  5
A5
330
A1
100
AcDbEntity
  8
Layer 1
370
     0
100
AcDbVertex
100
AcDb2dVertex
 10
280.0536551220438
 20
-283.6768964948359
 30
0.0
  0
VERTEX
  5
A6
330
A1
100
AcDbEntity
  8
Layer 1
370
     0
100
AcDbVertex
100
AcDb2dVertex
 10
279.9283914502002
 20
-283.5828453880886
 30
0.0
  0
SEQEND
  5
A7
330
A1
100
AcDbEntity
  8
Layer 1
370
     0
  0
SPLINE
  5
A8
330
5A
100
AcDbEntity
  8
Layer 1
370
     0
100
AcDbSpline
210
0.0
220
0.0
230
1.0
 70
    11
 71
     3
 72
   137
 73
   133
 74
     0
 42
0.0000000001
 43
0.0000000001
 40
0.0
 40
0.0
 40
0.0
 40
0.0
 40
1.0
 40
1.0
 40
1.0
 40
2.0
 40
2.0
 40
2.0
 40
3.0
 40
3.0
 40
3.0
 40
4.0
 40
4.0
 40
4.0
 40
5.0
 40
5.0
 40
5.0
 40
6.0
 40
6.0
 40
6.0
 40
7.0
 40
7.0
 40
7.0
 40
8.0
 40
8.0
 40
8.0
 40
9.0
 40
9.0
 40
9.0
 40
10.0
 40
10.0
 40
10.0
 40
11.0
 40
11.0
 40
11.0
 40
12.0
 40
12.0
 40
12.0
 40
13.0
 40
13.0
 40
13.0
 40
14.0
 40
14.0
 40
14.0
 40
15.0
 40
15.0
 40
15.0
 40
16.0
 40
16.0
 40
16.0
 40
17.0
 40
17.0
 40
17.0
 40
18.0
 40
18.0
 40
18.0
 40
19.0
 40
19.0
 40
19.0
 40
20.0
 40
20.0
 40
20.0
 40
21.0
 40
21.0
 40
21.0
 40
22.0
 40
22.0
 40
22.0
 40
23.0
 40
23.0
 40
23.0
 40
24.0
 40
24.0
 40
24.0
 40
25.0
 40
25.0
 40
25.0
 40
26.0
 40
26.0
 40
26.0
 40
27.0
 40
27.0
 40
27.0
 40
28.0
 40
28.0
 40
28.0
 40
29.0
 40
29.0
 40
29.0
 40
30.0
 40
30.0
 40
30.0
 40
31.0
 40
31.0
 40
31.0
 40
32.0
 40
32.0
 40
32.0
 40
33.0
 40
33.0
 40
33.0
 40
34.0
 40
34.0
 40
34.0
 40
35.0
 40
35.0
 40
35.0
 40
36.0
 40
36.0
 40
36.0
 40
37.0
 40
37.0
 40
37.0
 40
38.0
 40
38.0
 40
38.0
 40
39.0
 40
39.0
 40
39.0
 40
40.0
 40
40.0
 40
40.0
 40
41.0
 40
41.0
 40
41.0
 40
42.0
 40
42.0
 40
42.0
 40
43.0
 40
43.0
 40
43.0
 40
44.0
 40
44.0
 40
44.0
 40
44.0
 10
279.5877404086187
 20
-283.327012597354
 30
0.0
 10
279.6079975700719
 20
-283.3189510739185
 30
0.0
 10
279.6266010856923
 20
-283.3098560218374
 30
0.0
 10
279.6436887592992
 20
-283.2997963430205
 30
0.0
 10
279.6608453348157
 20
-283.2898055661133
 30
0.0
 10
279.6775540479192
 20
-283.2771965166373
 30
0.0
 10
279.6939527024289
 20
-283.2620380965022
 30
0.0
 10
279.7069407124083
 20
-283.2502214189878
 30
0.0
 10
279.7209622510333
 20
-283.2365788408662
 30
0.0
 10
279.7358106125747
 20
-283.2211792640471
 30
0.0
 10
279.7507623269807
 20
-283.2057452362732
 30
0.0
 10
279.7666786681226
 20
-283.1914825409643
 30
0.0
 10
279.7835596360003
 20
-283.1783911781203
 30
0.0
 10
279.8005095057877
 20
-283.1652653643215
 30
0.0
 10
279.8182172965819
 20
-283.1553090383691
 30
0.0
 10
279.836648557428
 20
-283.1483843964438
 30
0.0
 10
279.8551487201838
 20
-283.1414597545185
 30
0.0
 10
279.8745101568109
 20
-283.1405984806471
 30
0.0
 10
279.8947328673093
 20
-283.1458005748298
 30
0.0
 10
279.8982124137494
 20
-283.1467652015657
 30
0.0
 10
279.9016575092346
 20
-283.1476953773467
 30
0.0
 10
279.9051370556747
 20
-283.1486255531278
 30
0.0
 10
279.90858215116
 20
-283.1495557289088
 30
0.0
 10
279.9120272466452
 20
-283.1504859046898
 30
0.0
 10
279.9155067930853
 20
-283.1514505314257
 30
0.0
 10
279.9000727653114
 20
-283.1398405596404
 30
0.0
 10
279.8893240673975
 20
-283.1253367076475
 30
0.0
 10
279.8832606993434
 20
-283.1079045244921
 30
0.0
 10
279.8772662331991
 20
-283.0904723413367
 30
0.0
 10
279.8746479606303
 20
-283.0720755314455
 30
0.0
 10
279.8754403325919
 20
-283.0527140948184
 30
0.0
 10
279.8762671555083
 20
-283.0333526581913
 30
0.0
 10
279.880091211497
 20
-283.0144046330224
 30
0.0
 10
279.8869469515126
 20
-282.9958355683569
 30
0.0
 10
279.8938026915283
 20
-282.9773354056011
 30
0.0
 10
279.9024154302414
 20
-282.9611090058656
 30
0.0
 10
279.9128196186068
 20
-282.9472941729697
 30
0.0
 10
279.9343859163445
 20
-282.9185620766228
 30
0.0
 10
279.9558144102627
 20
-282.8972369355691
 30
0.0
 10
279.9771051003616
 20
-282.8832842988538
 30
0.0
 10
279.9983957904604
 20
-282.8692972111837
 30
0.0
 10
280.0194108729204
 20
-282.8607189234255
 30
0.0
 10
280.0401158967868
 20
-282.8575149846241
 30
0.0
 10
280.0607864696983
 20
-282.8543799477326
 30
0.0
 10
280.0814914935647
 20
-282.8562058483398
 30
0.0
 10
280.1021620664762
 20
-282.8629926864457
 30
0.0
 10
280.1228326393877
 20
-282.8697795245516
 30
0.0
 10
280.1433654084798
 20
-282.8789434785424
 30
0.0
 10
280.1637948247073
 20
-282.8905534503277
 30
0.0
 10
280.1842242409348
 20
-282.902163422113
 30
0.0
 10
280.2046881081172
 20
-282.9158749021443
 30
0.0
 10
280.2252208772093
 20
-282.9316878904216
 30
0.0
 10
280.2457880972563
 20
-282.9475697806085
 30
0.0
 10
280.266630924942
 20
-282.9630038083825
 30
0.0
 10
280.2877493602666
 20
-282.9780244246982
 30
0.0
 10
280.2877493602666
 20
-282.9780244246982
 30
0.0
 10
280.2080987526476
 20
-283.0841333656439
 30
0.0
 10
280.2080987526476
 20
-283.0841333656439
 30
0.0
 10
280.2080987526476
 20
-283.0841333656439
 30
0.0
 10
280.2048948138464
 20
-283.0817562497591
 30
0.0
 10
280.2048948138464
 20
-283.0817562497591
 30
0.0
 10
280.1953174483973
 20
-283.0745560001949
 30
0.0
 10
280.1858089848581
 20
-283.067045692037
 30
0.0
 10
280.1763694232284
 20
-283.0590530705113
 30
0.0
 10
280.1669298615989
 20
-283.0511293508952
 30
0.0
 10
280.1571457904208
 20
-283.0434123370082
 30
0.0
 10
280.147051660649
 20
-283.0357986759858
 30
0.0
 10
280.1358895512768
 20
-283.0274270939566
 30
0.0
 10
280.1254164610016
 20
-283.0206058048959
 30
0.0
 10
280.1155979388686
 20
-283.0153692597583
 30
0.0
 10
280.1058483186454
 20
-283.010063812711
 30
0.0
 10
280.0964432079707
 20
-283.0073766382325
 30
0.0
 10
280.0874170577993
 20
-283.0072388344131
 30
0.0
 10
280.0783220057182
 20
-283.0071010305937
 30
0.0
 10
280.0690891498178
 20
-283.0103394203499
 30
0.0
 10
280.0595462353236
 20
-283.0168851017718
 30
0.0
 10
280.0500722227392
 20
-283.0234996851035
 30
0.0
 10
280.0396680343737
 20
-283.0342483830175
 30
0.0
 10
280.0285059250015
 20
-283.0491311955137
 30
0.0
 10
280.0145188373314
 20
-283.0677347111341
 30
0.0
 10
280.0046314132887
 20
-283.0833754446371
 30
0.0
 10
279.9988092019187
 20
-283.0960878469777
 30
0.0
 10
279.9930558924583
 20
-283.1088002493183
 30
0.0
 10
279.991023286122
 20
-283.1203757701487
 30
0.0
 10
279.9927458338647
 20
-283.130814409469
 30
0.0
 10
279.9944683816072
 20
-283.1412530487893
 30
0.0
 10
279.9995326719706
 20
-283.1511060218771
 30
0.0
 10
280.0079731559094
 20
-283.1603388777776
 30
0.0
 10
280.0164136398483
 20
-283.1696406355878
 30
0.0
 10
280.0280925135433
 20
-283.1798381182241
 30
0.0
 10
280.0429753260396
 20
-283.1910002275963
 30
0.0
 10
280.0520359271658
 20
-283.1977870657022
 30
0.0
 10
280.0610276263823
 20
-283.2043671980791
 30
0.0
 10
280.0699848746439
 20
-283.2107061737719
 30
0.0
 10
280.0789765738604
 20
-283.2169762475551
 30
0.0
 10
280.087968273077
 20
-283.2235908308868
 30
0.0
 10
280.0970288742031
 20
-283.2303432180379
 30
0.0
 10
280.0970288742031
 20
-283.2303432180379
 30
0.0
 10
280.0231660269994
 20
-283.3320768877173
 30
0.0
 10
280.0231660269994
 20
-283.3320768877173
 30
0.0
 10
280.0162413850741
 20
-283.3268747935346
 30
0.0
 10
280.0114527023496
 20
-283.3232918942299
 30
0.0
 10
280.0087999788259
 20
-283.3212937388485
 30
0.0
 10
280.0055615890698
 20
-283.3189166229636
 30
0.0
 10
280.0031844731849
 20
-283.3170907223565
 30
0.0
 10
280.0016341802166
 20
-283.3159193898915
 30
0.0
 10
279.9994982210158
 20
-283.3143001950134
 30
0.0
 10
279.9968799484469
 20
-283.3127843529999
 30
0.0
 10
279.9937793625102
 20
-283.3113029619412
 30
0.0
 10
279.9907476784832
 20
-283.3098560218374
 30
0.0
 10
279.9855800352553
 20
-283.3067554359007
 30
0.0
 10
279.9782764328266
 20
-283.3021045569956
 30
0.0
 10
279.958088173283
 20
-283.2902534285264
 30
0.0
 10
279.9402425786694
 20
-283.2846379228854
 30
0.0
 10
279.9248774528052
 20
-283.2851202362534
 30
0.0
 10
279.909512326941
 20
-283.2856370005761
 30
0.0
 10
279.8955596902258
 20
-283.2899089189779
 30
0.0
 10
279.88288173884
 20
-283.2978670895488
 30
0.0
 10
279.8702382384092
 20
-283.3058597110746
 30
0.0
 10
279.8580426003914
 20
-283.31626389944
 30
0.0
 10
279.8463292757415
 20
-283.3290796546451
 30
0.0
 10
279.8346159510917
 20
-283.3418954098503
 30
0.0
 10
279.8220069016157
 20
-283.3545044593263
 30
0.0
 10
279.8086399311329
 20
-283.3668379011635
 30
0.0
 10
279.7951696077856
 20
-283.3792402449104
 30
0.0
 10
279.781044716296
 20
-283.3902645504632
 30
0.0
 10
279.7662652566643
 20
-283.3999797197316
 30
0.0
 10
279.7515202479875
 20
-283.4096604380451
 30
0.0
 10
279.7361551221233
 20
-283.4185143334422
 30
0.0
 10
279.7201698790716
 20
-283.426506954968
 30
0.0
 10
279.7201698790716
 20
-283.426506954968
 30
0.0
 10
279.5877404086187
 20
-283.327012597354
 30
0.0
 10
279.5877404086187
 20
-283.327012597354
 30
0.0
  0
HATCH
  5
A9
330
5A
100
AcDbEntity
  8
Layer 1
 62
     7
420
 15724268
100
AcDbHatch
 10
0.0
 20
0.0
 30
0.0
210
0.0
220
0.0
230
1.0
  2
SOLID
 70
     1
 71
     0
 91
        2
 92
        1
 93
        4
 72
     1
 10
279.9283914502002
 20
-283.5828453880886
 11
280.3484174917618
 21
-283.0235685870132
 72
     1
 10
280.3484174917618
 20
-283.0235685870132
 11
280.4736811636055
 21
-283.1176541447153
 72
     1
 10
280.4736811636055
 20
-283.1176541447153
 11
280.0536551220438
 21
-283.6768964948359
 72
     1
 10
280.0536551220438
 20
-283.6768964948359
 11
279.9283914502002
 21
-283.5828453880886
 97
        0
 92
        1
 93
        1
 72
     4
 94
        3
 73
     0
 74
     1
 95
      137
 96
      133
 40
0.0
 40
0.0
 40
0.0
 40
0.0
 40
1.0
 40
1.0
 40
1.0
 40
2.0
 40
2.0
 40
2.0
 40
3.0
 40
3.0
 40
3.0
 40
4.0
 40
4.0
 40
4.0
 40
5.0
 40
5.0
 40
5.0
 40
6.0
 40
6.0
 40
6.0
 40
7.0
 40
7.0
 40
7.0
 40
8.0
 40
8.0
 40
8.0
 40
9.0
 40
9.0
 40
9.0
 40
10.0
 40
10.0
 40
10.0
 40
11.0
 40
11.0
 40
11.0
 40
12.0
 40
12.0
 40
12.0
 40
13.0
 40
13.0
 40
13.0
 40
14.0
 40
14.0
 40
14.0
 40
15.0
 40
15.0
 40
15.0
 40
16.0
 40
16.0
 40
16.0
 40
17.0
 40
17.0
 40
17.0
 40
18.0
 40
18.0
 40
18.0
 40
19.0
 40
19.0
 40
19.0
 40
20.0
 40
20.0
 40
20.0
 40
21.0
 40
21.0
 40
21.0
 40
22.0
 40
22.0
 40
22.0
 40
23.0
 40
23.0
 40
23.0
 40
24.0
 40
24.0
 40
24.0
 40
25.0
 40
25.0
 40
25.0
 40
26.0
 40
26.0
 40
26.0
 40
27.0
 40
27.0
 40
27.0
 40
28.0
 40
28.0
 40
28.0
 40
29.0
 40
29.0
 40
29.0
 40
30.0
 40
30.0
 40
30.0
 40
31.0
 40
31.0
 40
31.0
 40
32.0
 40
32.0
 40
32.0
 40
33.0
 40
33.0
 40
33.0
 40
34.0
 40
34.0
 40
34.0
 40
35.0
 40
35.0
 40
35.0
 40
36.0
 40
36.0
 40
36.0
 40
37.0
 40
37.0
 40
37.0
 40
38.0
 40
38.0
 40
38.0
 40
39.0
 40
39.0
 40
39.0
 40
40.0
 40
40.0
 40
40.0
 40
41.0
 40
41.0
 40
41.0
 40
42.0
 40
42.0
 40
42.0
 40
43.0
 40
43.0
 40
43.0
 40
44.0
 40
44.0
 40
44.0
 40
44.0
 10
279.5877404086187
 20
-283.327012597354
 10
279.6079975700719
 20
-283.3189510739185
 10
279.6266010856923
 20
-283.3098560218374
 10
279.6436887592992
 20
-283.2997963430205
 10
279.6608453348157
 20
-283.2898055661133
 10
279.6775540479192
 20
-283.2771965166373
 10
279.6939527024289
 20
-283.2620380965022
 10
279.7069407124083
 20
-283.2502214189878
 10
279.7209622510333
 20
-283.2365788408662
 10
279.7358106125747
 20
-283.2211792640471
 10
279.7507623269807
 20
-283.2057452362732
 10
279.7666786681226
 20
-283.1914825409643
 10
279.7835596360003
 20
-283.1783911781203
 10
279.8005095057877
 20
-283.1652653643215
 10
279.8182172965819
 20
-283.1553090383691
 10
279.836648557428
 20
-283.1483843964438
 10
279.8551487201838
 20
-283.1414597545185
 10
279.8745101568109
 20
-283.1405984806471
 10
279.8947328673093
 20
-283.1458005748298
 10
279.8982124137494
 20
-283.1467652015657
 10
279.9016575092346
 20
-283.1476953773467
 10
279.9051370556747
 20
-283.1486255531278
 10
279.90858215116
 20
-283.1495557289088
 10
279.9120272466452
 20
-283.1504859046898
 10
279.9155067930853
 20
-283.1514505314257
 10
279.9000727653114
 20
-283.1398405596404
 10
279.8893240673975
 20
-283.1253367076475
 10
279.8832606993434
 20
-283.1079045244921
 10
279.8772662331991
 20
-283.0904723413367
 10
279.8746479606303
 20
-283.0720755314455
 10
279.8754403325919
 20
-283.0527140948184
 10
279.8762671555083
 20
-283.0333526581913
 10
279.880091211497
 20
-283.0144046330224
 10
279.8869469515126
 20
-282.9958355683569
 10
279.8938026915283
 20
-282.9773354056011
 10
279.9024154302414
 20
-282.9611090058656
 10
279.9128196186068
 20
-282.9472941729697
 10
279.9343859163445
 20
-282.9185620766228
 10
279.9558144102627
 20
-282.8972369355691
 10
279.9771051003616
 20
-282.8832842988538
 10
279.9983957904604
 20
-282.8692972111837
 10
280.0194108729204
 20
-282.8607189234255
 10
280.0401158967868
 20
-282.8575149846241
 10
280.0607864696983
 20
-282.8543799477326
 10
280.0814914935647
 20
-282.8562058483398
 10
280.1021620664762
 20
-282.8629926864457
 10
280.1228326393877
 20
-282.8697795245516
 10
280.1433654084798
 20
-282.8789434785424
 10
280.1637948247073
 20
-282.8905534503277
 10
280.1842242409348
 20
-282.902163422113
 10
280.2046881081172
 20
-282.9158749021443
 10
280.2252208772093
 20
-282.9316878904216
 10
280.2457880972563
 20
-282.9475697806085
 10
280.266630924942
 20
-282.9630038083825
 10
280.2877493602666
 20
-282.9780244246982
 10
280.2877493602666
 20
-282.9780244246982
 10
280.2080987526476
 20
-283.0841333656439
 10
280.2080987526476
 20
-283.0841333656439
 10
280.2080987526476
 20
-283.0841333656439
 10
280.2048948138464
 20
-283.0817562497591
 10
280.2048948138464
 20
-283.0817562497591
 10
280.1953174483973
 20
-283.0745560001949
 10
280.1858089848581
 20
-283.067045692037
 10
280.1763694232284
 20
-283.0590530705113
 10
280.1669298615989
 20
-283.0511293508952
 10
280.1571457904208
 20
-283.0434123370082
 10
280.147051660649
 20
-283.0357986759858
 10
280.1358895512768
 20
-283.0274270939566
 10
280.1254164610016
 20
-283.0206058048959
 10
280.1155979388686
 20
-283.0153692597583
 10
280.1058483186454
 20
-283.010063812711
 10
280.0964432079707
 20
-283.0073766382325
 10
280.0874170577993
 20
-283.0072388344131
 10
280.0783220057182
 20
-283.0071010305937
 10
280.0690891498178
 20
-283.0103394203499
 10
280.0595462353236
 20
-283.0168851017718
 10
280.0500722227392
 20
-283.0234996851035
 10
280.0396680343737
 20
-283.0342483830175
 10
280.0285059250015
 20
-283.0491311955137
 10
280.0145188373314
 20
-283.0677347111341
 10
280.0046314132887
 20
-283.0833754446371
 10
279.9988092019187
 20
-283.0960878469777
 10
279.9930558924583
 20
-283.1088002493183
 10
279.991023286122
 20
-283.1203757701487
 10
279.9927458338647
 20
-283.130814409469
 10
279.9944683816072
 20
-283.1412530487893
 10
279.9995326719706
 20
-283.1511060218771
 10
280.0079731559094
 20
-283.1603388777776
 10
280.0164136398483
 20
-283.1696406355878
 10
280.0280925135433
 20
-283.1798381182241
 10
280.0429753260396
 20
-283.1910002275963
 10
280.0520359271658
 20
-283.1977870657022
 10
280.0610276263823
 20
-283.2043671980791
 10
280.0699848746439
 20
-283.2107061737719
 10
280.0789765738604
 20
-283.2169762475551
 10
280.087968273077
 20
-283.2235908308868
 10
280.0970288742031
 20
-283.2303432180379
 10
280.0970288742031
 20
-283.2303432180379
 10
280.0231660269994
 20
-283.3320768877173
 10
280.0231660269994
 20
-283.3320768877173
 10
280.0162413850741
 20
-283.3268747935346
 10
280.0114527023496
 20
-283.3232918942299
 10
280.0087999788259
 20
-283.3212937388485
 10
280.0055615890698
 20
-283.3189166229636
 10
280.0031844731849
 20
-283.3170907223565
 10
280.0016341802166
 20
-283.3159193898915
 10
279.9994982210158
 20
-283.3143001950134
 10
279.9968799484469
 20
-283.3127843529999
 10
279.9937793625102
 20
-283.3113029619412
 10
279.9907476784832
 20
-283.3098560218374
 10
279.9855800352553
 20
-283.3067554359007
 10
279.9782764328266
 20
-283.3021045569956
 10
279.958088173283
 20
-283.2902534285264
 10
279.9402425786694
 20
-283.2846379228854
 10
279.9248774528052
 20
-283.2851202362534
 10
279.909512326941
 20
-283.2856370005761
 10
279.8955596902258
 20
-283.2899089189779
 10
279.88288173884
 20
-283.2978670895488
 10
279.8702382384092
 20
-283.3058597110746
 10
279.8580426003914
 20
-283.31626389944
 10
279.8463292757415
 20
-283.3290796546451
 10
279.8346159510917
 20
-283.3418954098503
 10
279.8220069016157
 20
-283.3545044593263
 10
279.8086399311329
 20
-283.3668379011635
 10
279.7951696077856
 20
-283.3792402449104
 10
279.781044716296
 20
-283.3902645504632
 10
279.7662652566643
 20
-283.3999797197316
 10
279.7515202479875
 20
-283.4096604380451
 10
279.7361551221233
 20
-283.4185143334422
 10
279.7201698790716
 20
-283.426506954968
 10
279.7201698790716
 20
-283.426506954968
 10
279.5877404086187
 20
-283.327012597354
 10
279.5877404086187
 20
-283.327012597354
 97
        0
 75
     2
 76
     1
 98
        0
  0
SPLINE
  5
AA
330
5A
100
AcDbEntity
  8
Layer 1
370
     0
100
AcDbSpline
210
0.0
220
0.0
230
1.0
 70
    11
 71
     3
 72
    17
 73
    13
 74
     0
 42
0.0000000001
 43
0.0000000001
 40
0.0
 40
0.0
 40
0.0
 40
0.0
 40
1.0
 40
1.0
 40
1.0
 40
2.0
 40
2.0
 40
2.0
 40
3.0
 40
3.0
 40
3.0
 40
4.0
 40
4.0
 40
4.0
 40
4.0
 10
278.717647092864
 20
-281.3154902454263
 30
0.0
 10
278.717647092864
 20
-281.2806258791156
 30
0.0
 10
278.7430718975451
 20
-281.2589906794682
 30
0.0
 10
278.7770405390297
 20
-281.2589906794682
 30
0.0
 10
278.8119049053404
 20
-281.2589906794682
 30
0.0
 10
278.8363650832857
 20
-281.2815905058515
 30
0.0
 10
278.8363650832857
 20
-281.3145945206002
 30
0.0
 10
278.8363650832857
 20
-281.347564084394
 30
0.0
 10
278.8118704543855
 20
-281.3711285375131
 30
0.0
 10
278.77697163712
 20
-281.3710940865582
 30
0.0
 10
278.7430718975451
 20
-281.3710940865582
 30
0.0
 10
278.717647092864
 20
-281.348494260175
 30
0.0
 10
278.717647092864
 20
-281.3154902454263
 30
0.0
  0
HATCH
  5
AB
330
5A
100
AcDbEntity
  8
Layer 1
 62
     7
420
 15724268
100
AcDbHatch
 10
0.0
 20
0.0
 30
0.0
210
0.0
220
0.0
230
1.0
  2
SOLID
 70
     1
 71
     0
 91
        1
 92
        1
 93
        1
 72
     4
 94
        3
 73
     0
 74
     1
 95
       17
 96
       13
 40
0.0
 40
0.0
 40
0.0
 40
0.0
 40
1.0
 40
1.0
 40
1.0
 40
2.0
 40
2.0
 40
2.0
 40
3.0
 40
3.0
 40
3.0
 40
4.0
 40
4.0
 40
4.0
 40
4.0
 10
278.717647092864
 20
-281.3154902454263
 10
278.717647092864
 20
-281.2806258791156
 10
278.7430718975451
 20
-281.2589906794682
 10
278.7770405390297
 20
-281.2589906794682
 10
278.8119049053404
 20
-281.2589906794682
 10
278.8363650832857
 20
-281.2815905058515
 10
278.8363650832857
 20
-281.3145945206002
 10
278.8363650832857
 20
-281.347564084394
 10
278.8118704543855
 20
-281.3711285375131
 10
278.77697163712
 20
-281.3710940865582
 10
278.7430718975451
 20
-281.3710940865582
 10
278.717647092864
 20
-281.348494260175
 10
278.717647092864
 20
-281.3154902454263
 97
        0
 75
     2
 76
     1
 98
        0
  0
ENDBLK
  5
5D
330
5A
100
AcDbEntity
  8
0
100
AcDbBlockEnd
  0
ENDSEC
  0
SECTION
  2
ENTITIES
  0
SPLINE
  5
3C
330
1F
100
AcDbEntity
  8
Layer 1
370
     0
100
AcDbSpline
210
0.0
220
0.0
230
1.0
 70
    11
 71
     3
 72
   182
 73
   178
 74
     0
 42
0.0000000001
 43
0.0000000001
 40
0.0
 40
0.0
 40
0.0
 40
0.0
 40
1.0
 40
1.0
 40
1.0
 40
2.0
 40
2.0
 40
2.0
 40
3.0
 40
3.0
 40
3.0
 40
4.0
 40
4.0
 40
4.0
 40
5.0
 40
5.0
 40
5.0
 40
6.0
 40
6.0
 40
6.0
 40
7.0
 40
7.0
 40
7.0
 40
8.0
 40
8.0
 40
8.0
 40
9.0
 40
9.0
 40
9.0
 40
10.0
 40
10.0
 40
10.0
 40
11.0
 40
11.0
 40
11.0
 40
12.0
 40
12.0
 40
12.0
 40
13.0
 40
13.0
 40
13.0
 40
14.0
 40
14.0
 40
14.0
 40
15.0
 40
15.0
 40
15.0
 40
16.0
 40
16.0
 40
16.0
 40
17.0
 40
17.0
 40
17.0
 40
18.0
 40
18.0
 40
18.0
 40
19.0
 40
19.0
 40
19.0
 40
20.0
 40
20.0
 40
20.0
 40
21.0
 40
21.0
 40
21.0
 40
22.0
 40
22.0
 40
22.0
 40
23.0
 40
23.0
 40
23.0
 40
24.0
 40
24.0
 40
24.0
 40
25.0
 40
25.0
 40
25.0
 40
26.0
 40
26.0
 40
26.0
 40
27.0
 40
27.0
 40
27.0
 40
28.0
 40
28.0
 40
28.0
 40
29.0
 40
29.0
 40
29.0
 40
30.0
 40
30.0
 40
30.0
 40
31.0
 40
31.0
 40
31.0
 40
32.0
 40
32.0
 40
32.0
 40
33.0
 40
33.0
 40
33.0
 40
34.0
 40
34.0
 40
34.0
 40
35.0
 40
35.0
 40
35.0
 40
36.0
 40
36.0
 40
36.0
 40
37.0
 40
37.0
 40
37.0
 40
38.0
 40
38.0
 40
38.0
 40
39.0
 40
39.0
 40
39.0
 40
40.0
 40
40.0
 40
40.0
 40
41.0
 40
41.0
 40
41.0
 40
42.0
 40
42.0
 40
42.0
 40
43.0
 40
43.0
 40
43.0
 40
44.0
 40
44.0
 40
44.0
 40
45.0
 40
45.0
 40
45.0
 40
46.0
 40
46.0
 40
46.0
 40
47.0
 40
47.0
 40
47.0
 40
48.0
 40
48.0
 40
48.0
 40
49.0
 40
49.0
 40
49.0
 40
50.0
 40
50.0
 40
50.0
 40
51.0
 40
51.0
 40
51.0
 40
52.0
 40
52.0
 40
52.0
 40
53.0
 40
53.0
 40
53.0
 40
54.0
 40
54.0
 40
54.0
 40
55.0
 40
55.0
 40
55.0
 40
56.0
 40
56.0
 40
56.0
 40
57.0
 40
57.0
 40
57.0
 40
58.0
 40
58.0
 40
58.0
 40
59.0
 40
59.0
 40
59.0
 40
59.0
 10
278.3047523989568
 20
-279.2971293789604
 30
0.0
 10
278.4552686207073
 20
-279.2971293789604
 30
0.0
 10
278.6059570972322
 20
-279.3015735521364
 30
0.0
 10
278.7561632603891
 20
-279.2945972337787
 30
0.0
 10
278.8050836162796
 20
-279.2923406962359
 30
0.0
 10
278.864545964355
 20
-279.2727553284023
 30
0.0
 10
278.8988591153881
 20
-279.2398546665181
 30
0.0
 10
279.1028087681149
 20
-279.0440009881817
 30
0.0
 10
279.3027965610336
 20
-278.8438409404887
 30
0.0
 10
279.4988569450992
 20
-278.6400807680135
 30
0.0
 10
279.5321365674868
 20
-278.6054920093417
 30
0.0
 10
279.5561833339738
 20
-278.5466497784536
 30
0.0
 10
279.5567345492514
 20
-278.4986595983441
 30
0.0
 10
279.558939410362
 20
-278.3025819888011
 30
0.0
 10
279.5539784728632
 20
-278.1062459970967
 30
0.0
 10
279.5450556755564
 20
-277.9102889658957
 30
0.0
 10
279.5216290262567
 20
-277.3964874252255
 30
0.0
 10
279.4223413743718
 20
-277.4560359006881
 30
0.0
 10
280.0208578130243
 20
-277.2239225923693
 30
0.0
 10
280.1355450417282
 20
-277.1794464096548
 30
0.0
 10
280.2198809792072
 20
-277.2073861340401
 30
0.0
 10
280.2996004887358
 20
-277.2969758421341
 30
0.0
 10
280.4420551870509
 20
-277.4571555567207
 30
0.0
 10
280.602252127115
 20
-277.6027969683597
 30
0.0
 10
280.7341303822904
 20
-277.7709176280399
 30
0.0
 10
280.8758616105536
 20
-277.9516817881509
 30
0.0
 10
281.0390902346447
 20
-278.0269571245037
 30
0.0
 10
281.2710829646214
 20
-278.0048396114884
 30
0.0
 10
281.5016976564041
 20
-277.9828599022924
 30
0.0
 10
281.7624224827278
 20
-278.0614080793562
 30
0.0
 10
281.9609288845879
 20
-277.9785190819811
 30
0.0
 10
282.1534408203036
 20
-277.8981450043102
 30
0.0
 10
282.2842855468334
 20
-277.669166732883
 30
0.0
 10
282.4411751952317
 20
-277.5044394922558
 30
0.0
 10
282.7862359590343
 20
-277.1422049274592
 30
0.0
 10
282.7848234698854
 20
-277.1443925630924
 30
0.0
 10
283.2458116967667
 20
-277.3586086003652
 30
0.0
 10
283.3668034502086
 20
-277.4148325586845
 30
0.0
 10
283.413656748808
 20
-277.4961540376138
 30
0.0
 10
283.4067665578375
 20
-277.6271193424856
 30
0.0
 10
283.3916081377024
 20
-277.9140785709295
 30
0.0
 10
283.3822374779825
 20
-278.2014167598767
 30
0.0
 10
283.3771387366644
 20
-278.4887377233466
 30
0.0
 10
283.376277462793
 20
-278.5368484817981
 30
0.0
 10
283.3958111541944
 20
-278.5981711814355
 30
0.0
 10
283.4282295027106
 20
-278.6319675681458
 30
0.0
 10
283.6271148650741
 20
-278.8392934144482
 30
0.0
 10
283.8308578120718
 20
-279.0421406366196
 30
0.0
 10
284.0373912864125
 20
-279.2418872728545
 30
0.0
 10
284.0689828120122
 20
-279.2724452698086
 30
0.0
 10
284.1234153206792
 20
-279.2944766554368
 30
0.0
 10
284.1673402881161
 20
-279.2945627828239
 30
0.0
 10
284.3725646261724
 20
-279.2948556159402
 30
0.0
 10
284.577961219003
 20
-279.2889817281378
 30
0.0
 10
284.7830133022852
 20
-279.2799555779665
 30
0.0
 10
285.2695985886218
 20
-279.2585787604805
 30
0.0
 10
285.2138224927156
 20
-279.171917383549
 30
0.0
 10
285.4379259540311
 20
-279.7261815706934
 30
0.0
 10
285.491669443601
 20
-279.8591622564241
 30
0.0
 10
285.4654867179131
 20
-279.9575369580054
 30
0.0
 10
285.3576552292248
 20
-280.0528799755597
 30
0.0
 10
285.1492269523672
 20
-280.237089231156
 30
0.0
 10
284.9461730244666
 20
-280.427792491742
 30
0.0
 10
284.748252288839
 20
-280.6232155331428
 30
0.0
 10
284.7061187710544
 20
-280.6647978356498
 30
0.0
 10
284.6753540683711
 20
-280.7374376739563
 30
0.0
 10
284.6734592658542
 20
-280.7969000220317
 30
0.0
 10
284.6649843309605
 20
-281.0564707413678
 30
0.0
 10
284.6718400709761
 20
-281.3165237740719
 30
0.0
 10
284.6672925449356
 20
-281.5762839736597
 30
0.0
 10
284.665569997193
 20
-281.6752960179058
 30
0.0
 10
284.6976093852058
 20
-281.7485731988771
 30
0.0
 10
284.7726091139197
 20
-281.8138577583226
 30
0.0
 10
284.9067611321153
 20
-281.9305431424079
 30
0.0
 10
285.035056487986
 20
-282.0541187174639
 30
0.0
 10
285.1643853725023
 20
-282.1762129014612
 30
0.0
 10
285.5291520824806
 20
-282.520515744257
 30
0.0
 10
285.5261893003632
 20
-282.519585568476
 30
0.0
 10
285.3122488707292
 20
-282.9799536781699
 30
0.0
 10
285.2560938143196
 20
-283.1007731768376
 30
0.0
 10
285.1762365009715
 20
-283.1499346894121
 30
0.0
 10
285.0450128139384
 20
-283.143182302261
 30
0.0
 10
284.7625494351028
 20
-283.128712901223
 30
0.0
 10
284.4797759976734
 20
-283.1175507918508
 30
0.0
 10
284.197037011199
 20
-283.1151392250111
 30
0.0
 10
284.1371957026202
 20
-283.1146224606883
 30
0.0
 10
284.0625749344097
 20
-283.1419076169315
 30
0.0
 10
284.0194423389344
 20
-283.1825252927026
 30
0.0
 10
283.8234853077333
 20
-283.3669068030732
 30
0.0
 10
283.6331437821733
 20
-283.5576272891366
 30
0.0
 10
283.4485900170284
 20
-283.7534809674731
 30
0.0
 10
283.4078689883928
 20
-283.796716915813
 30
0.0
 10
283.3784478729488
 20
-283.8701663515585
 30
0.0
 10
283.3789301863167
 20
-283.9294219939048
 30
0.0
 10
283.3814795569758
 20
-284.2166740554649
 30
0.0
 10
283.3939508026324
 20
-284.5039950189347
 30
0.0
 10
283.4071455183409
 20
-284.7910748257206
 30
0.0
 10
283.4126232201625
 20
-284.9100339728263
 30
0.0
 10
283.3719366424817
 20
-284.9941632045761
 30
0.0
 10
283.2589030596106
 20
-285.039948523575
 30
0.0
 10
283.1493145722248
 20
-285.0843213534251
 30
0.0
 10
283.0397949867487
 20
-285.1290731437785
 30
0.0
 10
282.9314122827827
 20
-285.1764087557458
 30
0.0
 10
282.8107650388893
 20
-285.2291876185798
 30
0.0
 10
282.7163694225935
 20
-285.2031426967113
 30
0.0
 10
282.6276237628934
 20
-285.1039239467361
 30
0.0
 10
282.4360075520038
 20
-284.889776811373
 30
0.0
 10
282.2394648545703
 20
-284.6799015944116
 30
0.0
 10
282.0390636501933
 20
-284.4739537863034
 30
0.0
 10
282.0032346571467
 20
-284.4370912646112
 30
0.0
 10
281.9397415473536
 20
-284.4094615988195
 30
0.0
 10
281.8883062717588
 20
-284.4082902663545
 30
0.0
 10
281.61008036037
 20
-284.4019512906617
 30
0.0
 10
281.3315788413424
 20
-284.4014689772937
 30
0.0
 10
281.0533873809085
 20
-284.4085314230385
 30
0.0
 10
280.9980935983702
 20
-284.4099439121874
 30
0.0
 10
280.9311898440467
 20
-284.4402263015028
 30
0.0
 10
280.891398991192
 20
-284.4793281352603
 30
0.0
 10
280.7516314673555
 20
-284.6167185432121
 30
0.0
 10
280.6222336809295
 20
-284.7646164923939
 30
0.0
 10
280.4873237417271
 20
-284.9070022887993
 30
0.0
 10
280.1507723637731
 20
-285.2623294371479
 30
0.0
 10
280.1514269319152
 20
-285.2597800664889
 30
0.0
 10
279.7054937723045
 20
-285.057484059595
 30
0.0
 10
279.5771984164338
 20
-284.9992619458943
 30
0.0
 10
279.5179083231326
 20
-284.916648556158
 30
0.0
 10
279.5269689242589
 20
-284.7712310757256
 30
0.0
 10
279.5442633035948
 20
-284.4935908305693
 30
0.0
 10
279.5541162766826
 20
-284.2151926644062
 30
0.0
 10
279.5553909620122
 20
-283.937070105882
 30
0.0
 10
279.5557010206059
 20
-283.873542545134
 30
0.0
 10
279.5241439459609
 20
-283.7952355247543
 30
0.0
 10
279.4805979390274
 20
-283.7486233828388
 30
0.0
 10
279.3000404846455
 20
-283.5554224280261
 30
0.0
 10
279.1128684469318
 20
-283.367871429809
 30
0.0
 10
278.9195641392545
 20
-283.1874173282916
 30
0.0
 10
278.8733309578424
 20
-283.1442847328163
 30
0.0
 10
278.7941626635914
 20
-283.1153803816951
 30
0.0
 10
278.7303250442497
 20
-283.1157593421985
 30
0.0
 10
278.4476205087301
 20
-283.1173440861217
 30
0.0
 10
278.1648470713008
 20
-283.1294363712749
 30
0.0
 10
277.8823492415103
 20
-283.1431478513062
 30
0.0
 10
277.7567410601181
 20
-283.1492456703151
 30
0.0
 10
277.6723362207294
 20
-283.1039771156389
 30
0.0
 10
277.6257585297689
 20
-282.9854658309463
 30
0.0
 10
277.5858643240497
 20
-282.8839044160412
 30
0.0
 10
277.5424216699807
 20
-282.7836521374204
 30
0.0
 10
277.4982899968147
 20
-282.6837443683481
 30
0.0
 10
277.4413770193983
 20
-282.5549666991095
 30
0.0
 10
277.4637701400524
 20
-282.4532674803849
 30
0.0
 10
277.5738409408062
 20
-282.3564602972494
 30
0.0
 10
277.7827170800768
 20
-282.1727678059759
 30
0.0
 10
277.9854954003387
 20
-281.9817028103639
 30
0.0
 10
278.1826926659144
 20
-281.7854701715241
 30
0.0
 10
278.2276167110421
 20
-281.7407872830804
 30
0.0
 10
278.2608274315198
 20
-281.6635137913462
 30
0.0
 10
278.2628255869013
 20
-281.600055132508
 30
0.0
 10
278.2711627179756
 20
-281.3359196616539
 30
0.0
 10
278.2704736988786
 20
-281.0711640736124
 30
0.0
 10
278.2614130977523
 20
-280.8070113772808
 30
0.0
 10
278.2592426875966
 20
-280.7433460127135
 30
0.0
 10
278.2275133581775
 20
-280.6669337948506
 30
0.0
 10
278.1835883907406
 20
-280.6210278975096
 30
0.0
 10
278.0513656260167
 20
-280.4827589902092
 30
0.0
 10
277.9054313812615
 20
-280.3577020240946
 30
0.0
 10
277.7667318370253
 20
-280.2255998377127
 30
0.0
 10
277.4045144977061
 20
-279.8806079758198
 30
0.0
 10
277.4069605155007
 20
-279.8811936420523
 30
0.0
 10
277.6243804915748
 20
-279.421256169294
 30
0.0
 10
277.6783651378287
 20
-279.3070857049128
 30
0.0
 10
277.7546051009172
 20
-279.2538245287108
 30
0.0
 10
277.8809712033162
 20
-279.2640392368246
 30
0.0
 10
278.0219100596178
 20
-279.2754080519259
 30
0.0
 10
278.1633656802421
 20
-279.280179509173
 30
0.0
 10
278.3045801441825
 20
-279.2877931701954
 30
0.0
 10
278.3046490460922
 20
-279.2908937561321
 30
0.0
 10
278.304717948002
 20
-279.2940287930237
 30
0.0
 10
278.3047523989568
 20
-279.2971293789604
 30
0.0
  0
SPLINE
  5
3D
330
1F
100
AcDbEntity
  8
Layer 1
370
     0
100
AcDbSpline
210
0.0
220
0.0
230
1.0
 70
    11
 71
     3
 72
    17
 73
    13
 74
     0
 42
0.0000000001
 43
0.0000000001
 40
0.0
 40
0.0
 40
0.0
 40
0.0
 40
1.0
 40
1.0
 40
1.0
 40
2.0
 40
2.0
 40
2.0
 40
3.0
 40
3.0
 40
3.0
 40
4.0
 40
4.0
 40
4.0
 40
4.0
 10
281.561986827396
 20
-279.4715373379012
 30
0.0
 10
280.5634603519511
 20
-279.4320220926854
 30
0.0
 10
279.7748779953774
 20
-280.2065484596793
 30
0.0
 10
279.7400825309764
 20
-281.1175522843213
 30
0.0
 10
279.7001194233475
 20
-282.1647407334953
 30
0.0
 10
280.5101302738395
 20
-282.8851446504158
 30
0.0
 10
281.3684413630346
 20
-282.931343380873
 30
0.0
 10
282.4019700086096
 20
-282.9869816729598
 30
0.0
 10
283.2084324107517
 20
-282.1459305121458
 30
0.0
 10
283.1993718096255
 20
-281.2044892688916
 30
0.0
 10
283.2201801863564
 20
-280.3110898821791
 30
0.0
 10
282.4458949760465
 20
-279.5065222825539
 30
0.0
 10
281.561986827396
 20
-279.4715373379012
 30
0.0
  0
HATCH
  5
3E
330
1F
100
AcDbEntity
  8
Layer 1
 62
     7
420
 16777215
100
AcDbHatch
 10
0.0
 20
0.0
 30
0.0
210
0.0
220
0.0
230
1.0
  2
SOLID
 70
     1
 71
     0
 91
        2
 92
        1
 93
        1
 72
     4
 94
        3
 73
     0
 74
     1
 95
      182
 96
      178
 40
0.0
 40
0.0
 40
0.0
 40
0.0
 40
1.0
 40
1.0
 40
1.0
 40
2.0
 40
2.0
 40
2.0
 40
3.0
 40
3.0
 40
3.0
 40
4.0
 40
4.0
 40
4.0
 40
5.0
 40
5.0
 40
5.0
 40
6.0
 40
6.0
 40
6.0
 40
7.0
 40
7.0
 40
7.0
 40
8.0
 40
8.0
 40
8.0
 40
9.0
 40
9.0
 40
9.0
 40
10.0
 40
10.0
 40
10.0
 40
11.0
 40
11.0
 40
11.0
 40
12.0
 40
12.0
 40
12.0
 40
13.0
 40
13.0
 40
13.0
 40
14.0
 40
14.0
 40
14.0
 40
15.0
 40
15.0
 40
15.0
 40
16.0
 40
16.0
 40
16.0
 40
17.0
 40
17.0
 40
17.0
 40
18.0
 40
18.0
 40
18.0
 40
19.0
 40
19.0
 40
19.0
 40
20.0
 40
20.0
 40
20.0
 40
21.0
 40
21.0
 40
21.0
 40
22.0
 40
22.0
 40
22.0
 40
23.0
 40
23.0
 40
23.0
 40
24.0
 40
24.0
 40
24.0
 40
25.0
 40
25.0
 40
25.0
 40
26.0
 40
26.0
 40
26.0
 40
27.0
 40
27.0
 40
27.0
 40
28.0
 40
28.0
 40
28.0
 40
29.0
 40
29.0
 40
29.0
 40
30.0
 40
30.0
 40
30.0
 40
31.0
 40
31.0
 40
31.0
 40
32.0
 40
32.0
 40
32.0
 40
33.0
 40
33.0
 40
33.0
 40
34.0
 40
34.0
 40
34.0
 40
35.0
 40
35.0
 40
35.0
 40
36.0
 40
36.0
 40
36.0
 40
37.0
 40
37.0
 40
37.0
 40
38.0
 40
38.0
 40
38.0
 40
39.0
 40
39.0
 40
39.0
 40
40.0
 40
40.0
 40
40.0
 40
41.0
 40
41.0
 40
41.0
 40
42.0
 40
42.0
 40
42.0
 40
43.0
 40
43.0
 40
43.0
 40
44.0
 40
44.0
 40
44.0
 40
45.0
 40
45.0
 40
45.0
 40
46.0
 40
46.0
 40
46.0
 40
47.0
 40
47.0
 40
47.0
 40
48.0
 40
48.0
 40
48.0
 40
49.0
 40
49.0
 40
49.0
 40
50.0
 40
50.0
 40
50.0
 40
51.0
 40
51.0
 40
51.0
 40
52.0
 40
52.0
 40
52.0
 40
53.0
 40
53.0
 40
53.0
 40
54.0
 40
54.0
 40
54.0
 40
55.0
 40
55.0
 40
55.0
 40
56.0
 40
56.0
 40
56.0
 40
57.0
 40
57.0
 40
57.0
 40
58.0
 40
58.0
 40
58.0
 40
59.0
 40
59.0
 40
59.0
 40
59.0
 10
278.3047523989568
 20
-279.2971293789604
 10
278.4552686207073
 20
-279.2971293789604
 10
278.6059570972322
 20
-279.3015735521364
 10
278.7561632603891
 20
-279.2945972337787
 10
278.8050836162796
 20
-279.2923406962359
 10
278.864545964355
 20
-279.2727553284023
 10
278.8988591153881
 20
-279.2398546665181
 10
279.1028087681149
 20
-279.0440009881817
 10
279.3027965610336
 20
-278.8438409404887
 10
279.4988569450992
 20
-278.6400807680135
 10
279.5321365674868
 20
-278.6054920093417
 10
279.5561833339738
 20
-278.5466497784536
 10
279.5567345492514
 20
-278.4986595983441
 10
279.558939410362
 20
-278.3025819888011
 10
279.5539784728632
 20
-278.1062459970967
 10
279.5450556755564
 20
-277.9102889658957
 10
279.5216290262567
 20
-277.3964874252255
 10
279.4223413743718
 20
-277.4560359006881
 10
280.0208578130243
 20
-277.2239225923693
 10
280.1355450417282
 20
-277.1794464096548
 10
280.2198809792072
 20
-277.2073861340401
 10
280.2996004887358
 20
-277.2969758421341
 10
280.4420551870509
 20
-277.4571555567207
 10
280.602252127115
 20
-277.6027969683597
 10
280.7341303822904
 20
-277.7709176280399
 10
280.8758616105536
 20
-277.9516817881509
 10
281.0390902346447
 20
-278.0269571245037
 10
281.2710829646214
 20
-278.0048396114884
 10
281.5016976564041
 20
-277.9828599022924
 10
281.7624224827278
 20
-278.0614080793562
 10
281.9609288845879
 20
-277.9785190819811
 10
282.1534408203036
 20
-277.8981450043102
 10
282.2842855468334
 20
-277.669166732883
 10
282.4411751952317
 20
-277.5044394922558
 10
282.7862359590343
 20
-277.1422049274592
 10
282.7848234698854
 20
-277.1443925630924
 10
283.2458116967667
 20
-277.3586086003652
 10
283.3668034502086
 20
-277.4148325586845
 10
283.413656748808
 20
-277.4961540376138
 10
283.4067665578375
 20
-277.6271193424856
 10
283.3916081377024
 20
-277.9140785709295
 10
283.3822374779825
 20
-278.2014167598767
 10
283.3771387366644
 20
-278.4887377233466
 10
283.376277462793
 20
-278.5368484817981
 10
283.3958111541944
 20
-278.5981711814355
 10
283.4282295027106
 20
-278.6319675681458
 10
283.6271148650741
 20
-278.8392934144482
 10
283.8308578120718
 20
-279.0421406366196
 10
284.0373912864125
 20
-279.2418872728545
 10
284.0689828120122
 20
-279.2724452698086
 10
284.1234153206792
 20
-279.2944766554368
 10
284.1673402881161
 20
-279.2945627828239
 10
284.3725646261724
 20
-279.2948556159402
 10
284.577961219003
 20
-279.2889817281378
 10
284.7830133022852
 20
-279.2799555779665
 10
285.2695985886218
 20
-279.2585787604805
 10
285.2138224927156
 20
-279.171917383549
 10
285.4379259540311
 20
-279.7261815706934
 10
285.491669443601
 20
-279.8591622564241
 10
285.4654867179131
 20
-279.9575369580054
 10
285.3576552292248
 20
-280.0528799755597
 10
285.1492269523672
 20
-280.237089231156
 10
284.9461730244666
 20
-280.427792491742
 10
284.748252288839
 20
-280.6232155331428
 10
284.7061187710544
 20
-280.6647978356498
 10
284.6753540683711
 20
-280.7374376739563
 10
284.6734592658542
 20
-280.7969000220317
 10
284.6649843309605
 20
-281.0564707413678
 10
284.6718400709761
 20
-281.3165237740719
 10
284.6672925449356
 20
-281.5762839736597
 10
284.665569997193
 20
-281.6752960179058
 10
284.6976093852058
 20
-281.7485731988771
 10
284.7726091139197
 20
-281.8138577583226
 10
284.9067611321153
 20
-281.9305431424079
 10
285.035056487986
 20
-282.0541187174639
 10
285.1643853725023
 20
-282.1762129014612
 10
285.5291520824806
 20
-282.520515744257
 10
285.5261893003632
 20
-282.519585568476
 10
285.3122488707292
 20
-282.9799536781699
 10
285.2560938143196
 20
-283.1007731768376
 10
285.1762365009715
 20
-283.1499346894121
 10
285.0450128139384
 20
-283.143182302261
 10
284.7625494351028
 20
-283.128712901223
 10
284.4797759976734
 20
-283.1175507918508
 10
284.197037011199
 20
-283.1151392250111
 10
284.1371957026202
 20
-283.1146224606883
 10
284.0625749344097
 20
-283.1419076169315
 10
284.0194423389344
 20
-283.1825252927026
 10
283.8234853077333
 20
-283.3669068030732
 10
283.6331437821733
 20
-283.5576272891366
 10
283.4485900170284
 20
-283.7534809674731
 10
283.4078689883928
 20
-283.796716915813
 10
283.3784478729488
 20
-283.8701663515585
 10
283.3789301863167
 20
-283.9294219939048
 10
283.3814795569758
 20
-284.2166740554649
 10
283.3939508026324
 20
-284.5039950189347
 10
283.4071455183409
 20
-284.7910748257206
 10
283.4126232201625
 20
-284.9100339728263
 10
283.3719366424817
 20
-284.9941632045761
 10
283.2589030596106
 20
-285.039948523575
 10
283.1493145722248
 20
-285.0843213534251
 10
283.0397949867487
 20
-285.1290731437785
 10
282.9314122827827
 20
-285.1764087557458
 10
282.8107650388893
 20
-285.2291876185798
 10
282.7163694225935
 20
-285.2031426967113
 10
282.6276237628934
 20
-285.1039239467361
 10
282.4360075520038
 20
-284.889776811373
 10
282.2394648545703
 20
-284.6799015944116
 10
282.0390636501933
 20
-284.4739537863034
 10
282.0032346571467
 20
-284.4370912646112
 10
281.9397415473536
 20
-284.4094615988195
 10
281.8883062717588
 20
-284.4082902663545
 10
281.61008036037
 20
-284.4019512906617
 10
281.3315788413424
 20
-284.4014689772937
 10
281.0533873809085
 20
-284.4085314230385
 10
280.9980935983702
 20
-284.4099439121874
 10
280.9311898440467
 20
-284.4402263015028
 10
280.891398991192
 20
-284.4793281352603
 10
280.7516314673555
 20
-284.6167185432121
 10
280.6222336809295
 20
-284.7646164923939
 10
280.4873237417271
 20
-284.9070022887993
 10
280.1507723637731
 20
-285.2623294371479
 10
280.1514269319152
 20
-285.2597800664889
 10
279.7054937723045
 20
-285.057484059595
 10
279.5771984164338
 20
-284.9992619458943
 10
279.5179083231326
 20
-284.916648556158
 10
279.5269689242589
 20
-284.7712310757256
 10
279.5442633035948
 20
-284.4935908305693
 10
279.5541162766826
 20
-284.2151926644062
 10
279.5553909620122
 20
-283.937070105882
 10
279.5557010206059
 20
-283.873542545134
 10
279.5241439459609
 20
-283.7952355247543
 10
279.4805979390274
 20
-283.7486233828388
 10
279.3000404846455
 20
-283.5554224280261
 10
279.1128684469318
 20
-283.367871429809
 10
278.9195641392545
 20
-283.1874173282916
 10
278.8733309578424
 20
-283.1442847328163
 10
278.7941626635914
 20
-283.1153803816951
 10
278.7303250442497
 20
-283.1157593421985
 10
278.4476205087301
 20
-283.1173440861217
 10
278.1648470713008
 20
-283.1294363712749
 10
277.8823492415103
 20
-283.1431478513062
 10
277.7567410601181
 20
-283.1492456703151
 10
277.6723362207294
 20
-283.1039771156389
 10
277.6257585297689
 20
-282.9854658309463
 10
277.5858643240497
 20
-282.8839044160412
 10
277.5424216699807
 20
-282.7836521374204
 10
277.4982899968147
 20
-282.6837443683481
 10
277.4413770193983
 20
-282.5549666991095
 10
277.4637701400524
 20
-282.4532674803849
 10
277.5738409408062
 20
-282.3564602972494
 10
277.7827170800768
 20
-282.1727678059759
 10
277.9854954003387
 20
-281.9817028103639
 10
278.1826926659144
 20
-281.7854701715241
 10
278.2276167110421
 20
-281.7407872830804
 10
278.2608274315198
 20
-281.6635137913462
 10
278.2628255869013
 20
-281.600055132508
 10
278.2711627179756
 20
-281.3359196616539
 10
278.2704736988786
 20
-281.0711640736124
 10
278.2614130977523
 20
-280.8070113772808
 10
278.2592426875966
 20
-280.7433460127135
 10
278.2275133581775
 20
-280.6669337948506
 10
278.1835883907406
 20
-280.6210278975096
 10
278.0513656260167
 20
-280.4827589902092
 10
277.9054313812615
 20
-280.3577020240946
 10
277.7667318370253
 20
-280.2255998377127
 10
277.4045144977061
 20
-279.8806079758198
 10
277.4069605155007
 20
-279.8811936420523
 10
277.6243804915748
 20
-279.421256169294
 10
277.6783651378287
 20
-279.3070857049128
 10
277.7546051009172
 20
-279.2538245287108
 10
277.8809712033162
 20
-279.2640392368246
 10
278.0219100596178
 20
-279.2754080519259
 10
278.1633656802421
 20
-279.280179509173
 10
278.3045801441825
 20
-279.2877931701954
 10
278.3046490460922
 20
-279.2908937561321
 10
278.304717948002
 20
-279.2940287930237
 10
278.3047523989568
 20
-279.2971293789604
 97
        0
 92
        1
 93
        1
 72
     4
 94
        3
 73
     0
 74
     1
 95
       17
 96
       13
 40
0.0
 40
0.0
 40
0.0
 40
0.0
 40
1.0
 40
1.0
 40
1.0
 40
2.0
 40
2.0
 40
2.0
 40
3.0
 40
3.0
 40
3.0
 40
4.0
 40
4.0
 40
4.0
 40
4.0
 10
281.561986827396
 20
-279.4715373379012
 10
280.5634603519511
 20
-279.4320220926854
 10
279.7748779953774
 20
-280.2065484596793
 10
279.7400825309764
 20
-281.1175522843213
 10
279.7001194233475
 20
-282.1647407334953
 10
280.5101302738395
 20
-282.8851446504158
 10
281.3684413630346
 20
-282.931343380873
 10
282.4019700086096
 20
-282.9869816729598
 10
283.2084324107517
 20
-282.1459305121458
 10
283.1993718096255
 20
-281.2044892688916
 10
283.2201801863564
 20
-280.3110898821791
 10
282.4458949760465
 20
-279.5065222825539
 10
281.561986827396
 20
-279.4715373379012
 97
        0
 75
     0
 76
     1
 98
        0
  0
INSERT
  5
40
330
1F
100
AcDbEntity
  8
Layer 1
100
AcDbBlockReference
  2
block 2
 10
0.0
 20
0.0
 30
0.0
  0
INSERT
  5
5B
330
1F
100
AcDbEntity
  8
Layer 1
100
AcDbBlockReference
  2
block 3
 10
0.0
 20
0.0
 30
0.0
  0
POLYLINE
  5
AC
330
1F
100
AcDbEntity
  8
Layer 1
 62
     7
420
 16777215
370
    35
100
AcDb2dPolyline
 66
     1
 10
0.0
 20
0.0
 30
0.0
  0
VERTEX
  5
AD
330
AC
100
AcDbEntity
  8
Layer 1
 62
     7
420
 16777215
370
    35
100
AcDbVertex
100
AcDb2dVertex
 10
277.4680420584542
 20
-285.2000765617295
 30
0.0
  0
VERTEX
  5
AE
330
AC
100
AcDbEntity
  8
Layer 1
 62
     7
420
 16777215
370
    35
100
AcDbVertex
100
AcDb2dVertex
 10
285.4649699535904
 20
-285.2000765617295
 30
0.0
  0
VERTEX
  5
AF
330
AC
100
AcDbEntity
  8
Layer 1
 62
     7
420
 16777215
370
    35
100
AcDbVertex
100
AcDb2dVertex
 10
285.4649699535904
 20
-277.2031142156384
 30
0.0
  0
VERTEX
  5
B0
330
AC
100
AcDbEntity
  8
Layer 1
 62
     7
420
 16777215
370
    35
100
AcDbVertex
100
AcDb2dVertex
 10
277.4680420584542
 20
-277.2031142156384
 30
0.0
  0
VERTEX
  5
B1
330
AC
100
AcDbEntity
  8
Layer 1
 62
     7
420
 16777215
370
    35
100
AcDbVertex
100
AcDb2dVertex
 10
277.4680420584542
 20
-285.2000765617295
 30
0.0
  0
SEQEND
  5
B2
330
AC
100
AcDbEntity
  8
Layer 1
370
    35
  0
ENDSEC
  0
SECTION
  2
OBJECTS
  0
DICTIONARY
  5
C
330
0
100
AcDbDictionary
281
     1
  3
ACAD_GROUP
350
D
  3
ACAD_LAYOUT
350
1A
  3
ACAD_MLINESTYLE
350
17
  3
ACAD_PLOTSETTINGS
350
19
  3
ACAD_PLOTSTYLENAME
350
E
  3
ACAD_TABLESTYLE
350
B3
  3
ACAD_VISUALSTYLE
350
2A
  0
DICTIONARY
  5
D
102
{ACAD_REACTORS
330
C
102
}
330
C
100
AcDbDictionary
281
     1
  0
DICTIONARY
  5
1A
102
{ACAD_REACTORS
330
C
102
}
330
C
100
AcDbDictionary
281
     1
  3
Layout1
350
1E
  3
Layout2
350
26
  3
Model
350
22
  0
DICTIONARY
  5
17
102
{ACAD_REACTORS
330
C
102
}
330
C
100
AcDbDictionary
281
     1
  3
Standard
350
18
  0
DICTIONARY
  5
19
102
{ACAD_REACTORS
330
C
102
}
330
C
100
AcDbDictionary
281
     1
  0
ACDBDICTIONARYWDFLT
  5
E
102
{ACAD_REACTORS
330
C
102
}
330
C
100
AcDbDictionary
281
     1
  3
Normal
350
F
100
AcDbDictionaryWithDefault
340
F
  0
DICTIONARY
  5
B3
102
{ACAD_REACTORS
330
C
102
}
330
C
100
AcDbDictionary
281
     1
  0
DICTIONARY
  5
2A
102
{ACAD_REACTORS
330
C
102
}
330
C
100
AcDbDictionary
281
     1
  3
2dWireframe
350
2F
  3
3D Hidden
350
31
  3
3dWireframe
350
30
  3
Basic
350
32
  3
Brighten
350
36
  3
ColorChange
350
3A
  3
Conceptual
350
34
  3
Dim
350
35
  3
Facepattern
350
39
  3
Flat
350
2B
  3
FlatWithEdges
350
2C
  3
Gouraud
350
2D
  3
GouraudWithEdges
350
2E
  3
Linepattern
350
38
  3
Realistic
350
33
  3
Thicken
350
37
  0
LAYOUT
  5
1E
102
{ACAD_REACTORS
330
1A
102
}
330
1A
100
AcDbPlotSettings
  1

  2
none_device
  4

  6

 40
0.0
 41
0.0
 42
0.0
 43
0.0
 44
0.0
 45
0.0
 46
0.0
 47
0.0
 48
0.0
 49
0.0
140
0.0
141
0.0
142
1.0
143
1.0
 70
   688
 72
     0
 73
     0
 74
     5
  7

 75
    16
 76
     0
 77
     2
 78
   300
147
1.0
148
0.0
149
0.0
100
AcDbLayout
  1
Layout1
 70
     1
 71
     1
 10
0.0
 20
0.0
 11
12.0
 21
9.0
 12
0.0
 22
0.0
 32
0.0
 14
1.000000000000000E+20
 24
1.000000000000000E+20
 34
1.000000000000000E+20
 15
-1.000000000000000E+20
 25
-1.000000000000000E+20
 35
-1.000000000000000E+20
146
0.0
 13
0.0
 23
0.0
 33
0.0
 16
1.0
 26
0.0
 36
0.0
 17
0.0
 27
1.0
 37
0.0
 76
     0
330
1B
  0
LAYOUT
  5
26
102
{ACAD_REACTORS
330
1A
102
}
330
1A
100
AcDbPlotSettings
  1

  2
none_device
  4

  6

 40
0.0
 41
0.0
 42
0.0
 43
0.0
 44
0.0
 45
0.0
 46
0.0
 47
0.0
 48
0.0
 49
0.0
140
0.0
141
0.0
142
1.0
143
1.0
 70
   688
 72
     0
 73
     0
 74
     5
  7

 75
    16
 76
     0
 77
     2
 78
   300
147
1.0
148
0.0
149
0.0
100
AcDbLayout
  1
Layout2
 70
     1
 71
     2
 10
0.0
 20
0.0
 11
0.0
 21
0.0
 12
0.0
 22
0.0
 32
0.0
 14
0.0
 24
0.0
 34
0.0
 15
0.0
 25
0.0
 35
0.0
146
0.0
 13
0.0
 23
0.0
 33
0.0
 16
1.0
 26
0.0
 36
0.0
 17
0.0
 27
1.0
 37
0.0
 76
     0
330
23
  0
LAYOUT
  5
22
102
{ACAD_REACTORS
330
1A
102
}
330
1A
100
AcDbPlotSettings
  1

  2
none_device
  4

  6

 40
0.0
 41
0.0
 42
0.0
 43
0.0
 44
0.0
 45
0.0
 46
0.0
 47
0.0
 48
0.0
 49
0.0
140
0.0
141
0.0
142
1.0
143
1.0
 70
  1712
 72
     0
 73
     0
 74
     0
  7

 75
     0
 76
     0
 77
     2
 78
   300
147
1.0
148
0.0
149
0.0
100
AcDbLayout
  1
Model
 70
     1
 71
     0
 10
0.0
 20
0.0
 11
12.0
 21
9.0
 12
0.0
 22
0.0
 32
0.0
 14
1.000000000000000E+20
 24
1.000000000000000E+20
 34
1.000000000000000E+20
 15
-1.000000000000000E+20
 25
-1.000000000000000E+20
 35
-1.000000000000000E+20
146
0.0
 13
0.0
 23
0.0
 33
0.0
 16
1.0
 26
0.0
 36
0.0
 17
0.0
 27
1.0
 37
0.0
 76
     0
330
1F
331
29
  0
MLINESTYLE
  5
18
102
{ACAD_REACTORS
330
17
102
}
330
17
100
AcDbMlineStyle
  2
Standard
 70
     0
  3

 62
   256
 51
90.0
 52
90.0
 71
     2
 49
0.5
 62
   256
  6
BYLAYER
 49
-0.5
 62
   256
  6
BYLAYER
  0
ACDBPLACEHOLDER
  5
F
102
{ACAD_REACTORS
330
E
102
}
330
E
  0
VISUALSTYLE
  5
2F
102
{ACAD_REACTORS
330
2A
102
}
330
2A
100
AcDbVisualStyle
  2
2dWireframe
 70
     4
 71
     0
 72
     2
 73
     0
 90
        0
 40
-0.6
 41
-30.0
 62
     5
 63
     7
421
 16777215
 74
     1
 91
        4
 64
     7
 65
   257
 75
     1
175
     1
 42
1.0
 92
        0
 66
   257
 43
1.0
 76
     1
 77
     6
 78
     2
 67
     7
 79
     5
170
     0
171
     0
290
     0
174
     0
 93
        1
 44
0.0
173
     0
291
     0
 45
0.0
1001
ACAD
1000
AcDbSavedByObjectVersion
1070
     0
  0
VISUALSTYLE
  5
31
102
{ACAD_REACTORS
330
2A
102
}
330
2A
100
AcDbVisualStyle
  2
3D Hidden
 70
     6
 71
     1
 72
     2
 73
     2
 90
        0
 40
-0.6
 41
-30.0
 62
     5
 63
     7
421
 16777215
 74
     2
 91
        2
 64
     7
 65
   257
 75
     2
175
     1
 42
40.0
 92
        0
 66
   257
 43
1.0
 76
     1
 77
     6
 78
     2
 67
     7
 79
     3
170
     0
171
     0
290
     0
174
     0
 93
        1
 44
0.0
173
     0
291
     0
 45
0.0
1001
ACAD
1000
AcDbSavedByObjectVersion
1070
     0
  0
VISUALSTYLE
  5
30
102
{ACAD_REACTORS
330
2A
102
}
330
2A
100
AcDbVisualStyle
  2
3dWireframe
 70
     5
 71
     0
 72
     2
 73
     0
 90
        0
 40
-0.6
 41
-30.0
 62
     5
 63
     7
421
 16777215
 74
     1
 91
        4
 64
     7
 65
   257
 75
     1
175
     1
 42
1.0
 92
        0
 66
   257
 43
1.0
 76
     1
 77
     6
 78
     2
 67
     7
 79
     5
170
     0
171
     0
290
     0
174
     0
 93
        1
 44
0.0
173
     0
291
     0
 45
0.0
1001
ACAD
1000
AcDbSavedByObjectVersion
1070
     0
  0
VISUALSTYLE
  5
32
102
{ACAD_REACTORS
330
2A
102
}
330
2A
100
AcDbVisualStyle
  2
Basic
 70
     7
 71
     1
 72
     0
 73
     1
 90
        0
 40
-0.6
 41
-30.0
 62
     5
 63
     7
421
 16777215
 74
     0
 91
        4
 64
     7
 65
   257
 75
     1
175
     1
 42
1.0
 92
        8
 66
     7
 43
1.0
 76
     1
 77
     6
 78
     2
 67
     7
 79
     5
170
     0
171
     0
290
     0
174
     0
 93
        1
 44
0.0
173
     0
291
     1
 45
0.0
1001
ACAD
1000
AcDbSavedByObjectVersion
1070
     0
  0
VISUALSTYLE
  5
36
102
{ACAD_REACTORS
330
2A
102
}
330
2A
100
AcDbVisualStyle
  2
Brighten
 70
    12
 71
     2
 72
     2
 73
     0
 90
        0
 40
-0.6
 41
-30.0
 62
     5
 63
     7
421
 16777215
 74
     1
 91
        4
 64
     7
 65
   257
 75
     1
175
     1
 42
1.0
 92
        8
 66
     7
 43
1.0
 76
     1
 77
     6
 78
     2
 67
     7
 79
     5
170
     0
171
     0
290
     0
174
     0
 93
        1
 44
50.0
173
     0
291
     1
 45
0.0
1001
ACAD
1000
AcDbSavedByObjectVersion
1070
     0
  0
VISUALSTYLE
  5
3A
102
{ACAD_REACTORS
330
2A
102
}
330
2A
100
AcDbVisualStyle
  2
ColorChange
 70
    16
 71
     2
 72
     2
 73
     3
 90
        0
 40
-0.6
 41
-30.0
 62
     5
 63
     8
421
  8421504
 74
     1
 91
        4
 64
     7
 65
   257
 75
     1
175
     1
 42
1.0
 92
        8
 66
     8
424
  8421504
 43
1.0
 76
     1
 77
     6
 78
     2
 67
     7
 79
     5
170
     0
171
     0
290
     0
174
     0
 93
        1
 44
0.0
173
     0
291
     1
 45
0.0
1001
ACAD
1000
AcDbSavedByObjectVersion
1070
     0
  0
VISUALSTYLE
  5
34
102
{ACAD_REACTORS
330
2A
102
}
330
2A
100
AcDbVisualStyle
  2
Conceptual
 70
     9
 71
     3
 72
     2
 73
     0
 90
        0
 40
-0.6
 41
-30.0
 62
     5
 63
     7
421
 16777215
 74
     2
 91
        2
 64
     7
 65
   257
 75
     1
175
     1
 42
40.0
 92
        8
 66
     7
 43
1.0
 76
     1
 77
     6
 78
     2
 67
     7
 79
     3
170
     0
171
     0
290
     0
174
     0
 93
        1
 44
0.0
173
     0
291
     0
 45
0.0
1001
ACAD
1000
AcDbSavedByObjectVersion
1070
     0
  0
VISUALSTYLE
  5
35
102
{ACAD_REACTORS
330
2A
102
}
330
2A
100
AcDbVisualStyle
  2
Dim
 70
    11
 71
     2
 72
     2
 73
     0
 90
        0
 40
-0.6
 41
-30.0
 62
     5
 63
     7
421
 16777215
 74
     1
 91
        4
 64
     7
 65
   257
 75
     1
175
     1
 42
1.0
 92
        8
 66
     7
 43
1.0
 76
     1
 77
     6
 78
     2
 67
     7
 79
     5
170
     0
171
     0
290
     0
174
     0
 93
        1
 44
-50.0
173
     0
291
     1
 45
0.0
1001
ACAD
1000
AcDbSavedByObjectVersion
1070
     0
  0
VISUALSTYLE
  5
39
102
{ACAD_REACTORS
330
2A
102
}
330
2A
100
AcDbVisualStyle
  2
Facepattern
 70
    15
 71
     2
 72
     2
 73
     0
 90
        0
 40
-0.6
 41
-30.0
 62
     5
 63
     7
421
 16777215
 74
     1
 91
        4
 64
     7
 65
   257
 75
     1
175
     1
 42
1.0
 92
        8
 66
     7
 43
1.0
 76
     1
 77
     6
 78
     2
 67
     7
 79
     5
170
     0
171
     0
290
     0
174
     0
 93
        1
 44
0.0
173
     0
291
     1
 45
0.0
1001
ACAD
1000
AcDbSavedByObjectVersion
1070
     0
  0
VISUALSTYLE
  5
2B
102
{ACAD_REACTORS
330
2A
102
}
330
2A
100
AcDbVisualStyle
  2
Flat
 70
     0
 71
     2
 72
     1
 73
     1
 90
        2
 40
-0.6
 41
30.0
 62
     5
 63
     7
421
 16777215
 74
     0
 91
        4
 64
     7
 65
   257
 75
     1
175
     1
 42
1.0
 92
        8
 66
     7
 43
1.0
 76
     1
 77
     6
 78
     2
 67
     7
 79
     5
170
     0
171
     0
290
     0
174
     0
 93
       13
 44
0.0
173
     0
291
     1
 45
0.0
1001
ACAD
1000
AcDbSavedByObjectVersion
1070
     0
  0
VISUALSTYLE
  5
2C
102
{ACAD_REACTORS
330
2A
102
}
330
2A
100
AcDbVisualStyle
  2
FlatWithEdges
 70
     1
 71
     2
 72
     1
 73
     1
 90
        2
 40
-0.6
 41
30.0
 62
     5
 63
     7
421
 16777215
 74
     1
 91
        4
 64
     7
 65
   257
 75
     1
175
     1
 42
1.0
 92
        0
 66
   257
 43
1.0
 76
     1
 77
     6
 78
     2
 67
     7
 79
     5
170
     0
171
     0
290
     0
174
     0
 93
       13
 44
0.0
173
     0
291
     1
 45
0.0
1001
ACAD
1000
AcDbSavedByObjectVersion
1070
     0
  0
VISUALSTYLE
  5
2D
102
{ACAD_REACTORS
330
2A
102
}
330
2A
100
AcDbVisualStyle
  2
Gouraud
 70
     2
 71
     2
 72
     2
 73
     1
 90
        2
 40
-0.6
 41
30.0
 62
     5
 63
     7
421
 16777215
 74
     0
 91
        4
 64
     7
 65
   257
 75
     1
175
     1
 42
1.0
 92
        0
 66
     7
 43
1.0
 76
     1
 77
     6
 78
     2
 67
     7
 79
     5
170
     0
171
     0
290
     0
174
     0
 93
       13
 44
0.0
173
     0
291
     1
 45
0.0
1001
ACAD
1000
AcDbSavedByObjectVersion
1070
     0
  0
VISUALSTYLE
  5
2E
102
{ACAD_REACTORS
330
2A
102
}
330
2A
100
AcDbVisualStyle
  2
GouraudWithEdges
 70
     3
 71
     2
 72
     2
 73
     1
 90
        2
 40
-0.6
 41
30.0
 62
     5
 63
     7
421
 16777215
 74
     1
 91
        4
 64
     7
 65
   257
 75
     1
175
     1
 42
1.0
 92
        0
 66
   257
 43
1.0
 76
     1
 77
     6
 78
     2
 67
     7
 79
     5
170
     0
171
     0
290
     0
174
     0
 93
       13
 44
0.0
173
     0
291
     1
 45
0.0
1001
ACAD
1000
AcDbSavedByObjectVersion
1070
     0
  0
VISUALSTYLE
  5
38
102
{ACAD_REACTORS
330
2A
102
}
330
2A
100
AcDbVisualStyle
  2
Linepattern
 70
    14
 71
     2
 72
     2
 73
     0
 90
        0
 40
-0.6
 41
-30.0
 62
     5
 63
     7
421
 16777215
 74
     1
 91
        4
 64
     7
 65
   257
 75
     7
175
     7
 42
1.0
 92
        8
 66
     7
 43
1.0
 76
     1
 77
     6
 78
     2
 67
     7
 79
     5
170
     0
171
     0
290
     0
174
     0
 93
        1
 44
0.0
173
     0
291
     1
 45
0.0
1001
ACAD
1000
AcDbSavedByObjectVersion
1070
     0
  0
VISUALSTYLE
  5
33
102
{ACAD_REACTORS
330
2A
102
}
330
2A
100
AcDbVisualStyle
  2
Realistic
 70
     8
 71
     2
 72
     2
 73
     0
 90
        0
 40
-0.6
 41
-30.0
 62
     5
 63
     7
421
 16777215
 74
     1
 91
        0
 64
     7
 65
   257
 75
     1
175
     1
 42
1.0
 92
        8
 66
     8
424
  7895160
 43
1.0
 76
     1
 77
     6
 78
     2
 67
     7
 79
     5
170
     0
171
     0
290
     0
174
     0
 93
       13
 44
0.0
173
     0
291
     0
 45
0.0
1001
ACAD
1000
AcDbSavedByObjectVersion
1070
     0
  0
VISUALSTYLE
  5
37
102
{ACAD_REACTORS
330
2A
102
}
330
2A
100
AcDbVisualStyle
  2
Thicken
 70
    13
 71
     2
 72
     2
 73
     0
 90
        0
 40
-0.6
 41
-30.0
 62
     5
 63
     7
421
 16777215
 74
     1
 91
        4
 64
     7
 65
   257
 75
     1
175
     1
 42
1.0
 92
       12
 66
     7
 43
1.0
 76
     1
 77
     6
 78
     2
 67
     7
 79
     5
170
     0
171
     0
290
     0
174
     0
 93
        1
 44
0.0
173
     0
291
     1
 45
0.0
1001
ACAD
1000
AcDbSavedByObjectVersion
1070
     0
  0
ENDSEC
  0
EOF
